  0
SECTION
  2
HEADER
  9
$ACADVER
  1
AC1018
  9
$ACADMAINTVER
 70
     0
  9
$DWGCODEPAGE
  3
ANSI_1252
  9
$INSBASE
 10
0.0
 20
0.0
 30
0.0
  9
$EXTMIN
 10
-0.5
 20
-0.5
 30
-0.5
  9
$EXTMAX
 10
5.0
 20
5.0
 30
5.0
  9
$LIMMIN
 10
-0.5
 20
-0.5
  9
$LIMMAX
 10
5.0
 20
5.0
  9
$ORTHOMODE
 70
     0
  9
$REGENMODE
 70
     1
  9
$FILLMODE
 70
     1
  9
$QTEXTMODE
 70
     0
  9
$MIRRTEXT
 70
     1
  9
$LTSCALE
 40
1.0
  9
$ATTMODE
 70
     1
  9
$TEXTSIZE
 40
0.2
  9
$TRACEWID
 40
0.05
  9
$TEXTSTYLE
  7
Standard
  9
$CLAYER
  8
0
  9
$CELTYPE
  6
ByLayer
  9
$CECOLOR
 62
   256
  9
$CELTSCALE
 40
1.0
  9
$DISPSILH
 70
     0
  9
$DIMSCALE
 40
1.0
  9
$DIMASZ
 40
0.18
  9
$DIMEXO
 40
0.0625
  9
$DIMDLI
 40
0.38
  9
$DIMRND
 40
0.0
  9
$DIMDLE
 40
0.0
  9
$DIMEXE
 40
0.18
  9
$DIMTP
 40
0.0
  9
$DIMTM
 40
0.0
  9
$DIMTXT
 40
0.18
  9
$DIMCEN
 40
0.09
  9
$DIMTSZ
 40
0.0
  9
$DIMTOL
 70
     0
  9
$DIMLIM
 70
     0
  9
$DIMTIH
 70
     1
  9
$DIMTOH
 70
     1
  9
$DIMSE1
 70
     0
  9
$DIMSE2
 70
     0
  9
$DIMTAD
 70
     0
  9
$DIMZIN
 70
     0
  9
$DIMBLK
  1

  9
$DIMASO
 70
     1
  9
$DIMSHO
 70
     1
  9
$DIMPOST
  1

  9
$DIMAPOST
  1

  9
$DIMALT
 70
     0
  9
$DIMALTD
 70
     2
  9
$DIMALTF
 40
25.4
  9
$DIMLFAC
 40
1.0
  9
$DIMTOFL
 70
     0
  9
$DIMTVP
 40
0.0
  9
$DIMTIX
 70
     0
  9
$DIMSOXD
 70
     0
  9
$DIMSAH
 70
     0
  9
$DIMBLK1
  1

  9
$DIMBLK2
  1

  9
$DIMSTYLE
  2
Standard
  9
$DIMCLRD
 70
     0
  9
$DIMCLRE
 70
     0
  9
$DIMCLRT
 70
     0
  9
$DIMTFAC
 40
1.0
  9
$DIMGAP
 40
0.09
  9
$DIMJUST
 70
     0
  9
$DIMSD1
 70
     0
  9
$DIMSD2
 70
     0
  9
$DIMTOLJ
 70
     1
  9
$DIMTZIN
 70
     0
  9
$DIMALTZ
 70
     0
  9
$DIMALTTZ
 70
     0
  9
$DIMUPT
 70
     0
  9
$DIMDEC
 70
     4
  9
$DIMTDEC
 70
     4
  9
$DIMALTU
 70
     2
  9
$DIMALTTD
 70
     2
  9
$DIMTXSTY
  7
Standard
  9
$DIMAUNIT
 70
     0
  9
$DIMADEC
 70
     0
  9
$DIMALTRND
 40
0.0
  9
$DIMAZIN
 70
     0
  9
$DIMDSEP
 70
    46
  9
$DIMATFIT
 70
     3
  9
$DIMFRAC
 70
     0
  9
$DIMLDRBLK
  1

  9
$DIMLUNIT
 70
     2
  9
$DIMLWD
 70
    -2
  9
$DIMLWE
 70
    -2
  9
$DIMTMOVE
 70
     0
  9
$LUNITS
 70
     2
  9
$LUPREC
 70
     4
  9
$SKETCHINC
 40
0.1
  9
$FILLETRAD
 40
0.5
  9
$AUNITS
 70
     0
  9
$AUPREC
 70
     0
  9
$MENU
  1
.
  9
$ELEVATION
 40
0.0
  9
$PELEVATION
 40
0.0
  9
$THICKNESS
 40
0.0
  9
$LIMCHECK
 70
     0
  9
$CHAMFERA
 40
0.0
  9
$CHAMFERB
 40
0.0
  9
$CHAMFERC
 40
0.0
  9
$CHAMFERD
 40
0.0
  9
$SKPOLY
 70
     0
  9
$TDCREATE
 40
2460054.593280301
  9
$TDUCREATE
 40
2460054.509946967
  9
$TDUPDATE
 40
2460054.593280799
  9
$TDUUPDATE
 40
2460054.509947465
  9
$TDINDWG
 40
0.0000000116
  9
$TDUSRTIMER
 40
0.0000000116
  9
$USRTIMER
 70
     1
  9
$ANGBASE
 50
0.0
  9
$ANGDIR
 70
     0
  9
$PDMODE
 70
     0
  9
$PDSIZE
 40
0.0
  9
$PLINEWID
 40
0.0
  9
$SPLFRAME
 70
     0
  9
$SPLINETYPE
 70
     6
  9
$SPLINESEGS
 70
     8
  9
$HANDSEED
  5
200
  9
$SURFTAB1
 70
     6
  9
$SURFTAB2
 70
     6
  9
$SURFTYPE
 70
     6
  9
$SURFU
 70
     6
  9
$SURFV
 70
     6
  9
$UCSBASE
  2

  9
$UCSNAME
  2

  9
$UCSORG
 10
0.0
 20
0.0
 30
0.0
  9
$UCSXDIR
 10
1.0
 20
0.0
 30
0.0
  9
$UCSYDIR
 10
0.0
 20
1.0
 30
0.0
  9
$UCSORTHOREF
  2

  9
$UCSORTHOVIEW
 70
     0
  9
$UCSORGTOP
 10
0.0
 20
0.0
 30
0.0
  9
$UCSORGBOTTOM
 10
0.0
 20
0.0
 30
0.0
  9
$UCSORGLEFT
 10
0.0
 20
0.0
 30
0.0
  9
$UCSORGRIGHT
 10
0.0
 20
0.0
 30
0.0
  9
$UCSORGFRONT
 10
0.0
 20
0.0
 30
0.0
  9
$UCSORGBACK
 10
0.0
 20
0.0
 30
0.0
  9
$PUCSBASE
  2

  9
$PUCSNAME
  2

  9
$PUCSORG
 10
0.0
 20
0.0
 30
0.0
  9
$PUCSXDIR
 10
1.0
 20
0.0
 30
0.0
  9
$PUCSYDIR
 10
0.0
 20
1.0
 30
0.0
  9
$PUCSORTHOREF
  2

  9
$PUCSORTHOVIEW
 70
     0
  9
$PUCSORGTOP
 10
0.0
 20
0.0
 30
0.0
  9
$PUCSORGBOTTOM
 10
0.0
 20
0.0
 30
0.0
  9
$PUCSORGLEFT
 10
0.0
 20
0.0
 30
0.0
  9
$PUCSORGRIGHT
 10
0.0
 20
0.0
 30
0.0
  9
$PUCSORGFRONT
 10
0.0
 20
0.0
 30
0.0
  9
$PUCSORGBACK
 10
0.0
 20
0.0
 30
0.0
  9
$USERI1
 70
     0
  9
$USERI2
 70
     0
  9
$USERI3
 70
     0
  9
$USERI4
 70
     0
  9
$USERI5
 70
     0
  9
$USERR1
 40
0.0
  9
$USERR2
 40
0.0
  9
$USERR3
 40
0.0
  9
$USERR4
 40
0.0
  9
$USERR5
 40
0.0
  9
$WORLDVIEW
 70
     1
  9
$SHADEDGE
 70
     3
  9
$SHADEDIF
 70
    70
  9
$TILEMODE
 70
     1
  9
$MAXACTVP
 70
    64
  9
$PINSBASE
 10
0.0
 20
0.0
 30
0.0
  9
$PLIMCHECK
 70
     0
  9
$PEXTMIN
 10
-0.5
 20
-0.5
 30
-0.5
  9
$PEXTMAX
 10
5.0
 20
5.0
 30
5.0
  9
$PLIMMIN
 10
-0.5
 20
-0.5
  9
$PLIMMAX
 10
5.0
 20
5.0
  9
$UNITMODE
 70
     0
  9
$VISRETAIN
 70
     1
  9
$PLINEGEN
 70
     0
  9
$PSLTSCALE
 70
     1
  9
$TREEDEPTH
 70
  3020
  9
$CMLSTYLE
  2
Standard
  9
$CMLJUST
 70
     0
  9
$CMLSCALE
 40
1.0
  9
$PROXYGRAPHICS
 70
     1
  9
$MEASUREMENT
 70
     1
  9
$CELWEIGHT
370
    18
  9
$ENDCAPS
280
     0
  9
$JOINSTYLE
280
     0
  9
$LWDISPLAY
290
     1
  9
$INSUNITS
 70
     4
  9
$HYPERLINKBASE
  1

  9
$STYLESHEET
  1

  9
$XEDIT
290
     1
  9
$CEPSNTYPE
380
     0
  9
$PSTYLEMODE
290
     1
  9
$FINGERPRINTGUID
  2
{43972CAF-238E-4F98-98FF-82A9CCBCF4C9}
  9
$VERSIONGUID
  2
{FAEB1C32-E019-11D5-929B-00C0DF256EC4}
  9
$EXTNAMES
290
     1
  9
$PSVPSCALE
 40
0.0
  9
$OLESTARTUP
290
     0
  9
$SORTENTS
280
   127
  9
$INDEXCTL
280
     0
  9
$HIDETEXT
280
     1
  9
$XCLIPFRAME
290
     0
  9
$HALOGAP
280
     0
  9
$OBSCOLOR
 70
   257
  9
$OBSLTYPE
280
     0
  9
$INTERSECTIONDISPLAY
280
     0
  9
$INTERSECTIONCOLOR
 70
   257
  9
$DIMASSOC
280
     2
  9
$PROJECTNAME
  1

  0
ENDSEC
  0
SECTION
  2
CLASSES
  0
CLASS
  1
ACDBDICTIONARYWDFLT
  2
AcDbDictionaryWithDefault
  3
ObjectDBX Classes
 90
        0
 91
        3
280
     0
281
     0
  0
CLASS
  1
VISUALSTYLE
  2
AcDbVisualStyle
  3
ObjectDBX Classes
 90
     4095
 91
        3
280
     0
281
     0
  0
CLASS
  1
MATERIAL
  2
AcDbMaterial
  3
ObjectDBX Classes
 90
     1153
 91
        3
280
     0
281
     0
  0
CLASS
  1
SCALE
  2
AcDbScale
  3
ObjectDBX Classes
 90
     1153
 91
        3
280
     0
281
     0
  0
CLASS
  1
TABLESTYLE
  2
AcDbTableStyle
  3
ObjectDBX Classes
 90
     4095
 91
        3
280
     0
281
     0
  0
CLASS
  1
MLEADERSTYLE
  2
AcDbMLeaderStyle
  3
ACDB_MLEADERSTYLE_CLASS
 90
     4095
 91
        3
280
     0
281
     0
  0
CLASS
  1
SUN
  2
AcDbSun
  3
SCENEOE
 90
     1153
 91
        3
280
     0
281
     0
  0
CLASS
  1
DICTIONARYVAR
  2
AcDbDictionaryVar
  3
ObjectDBX Classes
 90
        0
 91
        3
280
     0
281
     0
  0
CLASS
  1
CELLSTYLEMAP
  2
AcDbCellStyleMap
  3
ObjectDBX Classes
 90
     1152
 91
        3
280
     0
281
     0
  0
ENDSEC
  0
SECTION
  2
TABLES
  0
TABLE
  2
VPORT
  5
8
102
{ACAD_XDICTIONARY
360
1B9
102
}
330
0
100
AcDbSymbolTable
 70
    16
  0
VPORT
  5
29
330
8
100
AcDbSymbolTableRecord
100
AcDbViewportTableRecord
  2
*Active
 70
     0
 10
0.0
 20
0.0
 11
1.0
 21
1.0
 12
594.855903
 22
433.628853
 13
0.0
 23
0.0
 14
0.5
 24
0.5
 15
0.5
 25
0.5
 16
0.0
 26
0.0
 36
1.0
 17
0.0
 27
0.0
 37
0.0
 40
254.0
 41
0.069908
 42
50.0
 43
1333.843907
 44
-1333.843907
 50
0.0
 51
0.0
 71
     0
 72
   100
 73
     1
 74
     3
 75
     0
 76
     0
 77
     0
 78
     0
281
     0
 65
     1
110
0.0
120
0.0
130
0.0
111
1.0
121
0.0
131
0.0
112
0.0
122
1.0
132
0.0
 79
     0
146
0.0
  0
VPORT
  5
1AA
330
8
100
AcDbSymbolTableRecord
100
AcDbViewportTableRecord
  2
L1
 70
     0
 10
0.0
 20
0.0
 11
1.0
 21
1.0
 12
594.855903
 22
433.628853
 13
0.0
 23
0.0
 14
0.5
 24
0.5
 15
0.5
 25
0.5
 16
0.0
 26
0.0
 36
1.0
 17
0.0
 27
0.0
 37
0.0
 40
254.0
 41
0.069908
 42
50.0
 43
1333.843907
 44
-1333.843907
 50
0.0
 51
0.0
 71
     0
 72
   100
 73
     1
 74
     3
 75
     0
 76
     0
 77
     0
 78
     0
281
     0
 65
     1
110
0.0
120
0.0
130
0.0
111
1.0
121
0.0
131
0.0
112
0.0
122
1.0
132
0.0
 79
     0
146
0.0
  0
VPORT
  5
1AB
330
8
100
AcDbSymbolTableRecord
100
AcDbViewportTableRecord
  2
L2
 70
     0
 10
0.0
 20
0.0
 11
0.5
 21
1.0
 12
0.0
 22
0.0
 13
0.0
 23
0.0
 14
0.5
 24
0.5
 15
0.5
 25
0.5
 16
0.0
 26
-1.0
 36
0.0
 17
0.0
 27
0.0
 37
0.0
 40
1554.140024
 41
0.011425
 42
50.0
 43
799.170128
 44
-799.170128
 50
0.0
 51
0.0
 71
     0
 72
   100
 73
     1
 74
     3
 75
     0
 76
     0
 77
     0
 78
     0
281
     0
 65
     1
110
0.0
120
0.0
130
0.0
111
1.0
121
0.0
131
0.0
112
0.0
122
1.0
132
0.0
 79
     0
146
0.0
  0
VPORT
  5
1AC
330
8
100
AcDbSymbolTableRecord
100
AcDbViewportTableRecord
  2
L2
 70
     0
 10
0.5
 20
0.0
 11
1.0
 21
1.0
 12
0.0
 22
0.0
 13
0.0
 23
0.0
 14
0.5
 24
0.5
 15
0.5
 25
0.5
 16
1.0
 26
0.0
 36
0.0
 17
0.0
 27
0.0
 37
0.0
 40
1554.140024
 41
0.011425
 42
50.0
 43
787.379708
 44
-787.379708
 50
0.0
 51
0.0
 71
     0
 72
   100
 73
     1
 74
     3
 75
     0
 76
     0
 77
     0
 78
     0
281
     0
 65
     1
110
0.0
120
0.0
130
0.0
111
1.0
121
0.0
131
0.0
112
0.0
122
1.0
132
0.0
 79
     0
146
0.0
  0
VPORT
  5
1AD
330
8
100
AcDbSymbolTableRecord
100
AcDbViewportTableRecord
  2
L3
 70
     0
 10
0.0
 20
0.5
 11
1.0
 21
1.0
 12
594.855903
 22
433.628853
 13
0.0
 23
0.0
 14
0.5
 24
0.5
 15
0.5
 25
0.5
 16
0.0
 26
0.0
 36
1.0
 17
0.0
 27
0.0
 37
0.0
 40
254.0
 41
0.069908
 42
50.0
 43
1333.843907
 44
-1333.843907
 50
0.0
 51
0.0
 71
     0
 72
   100
 73
     1
 74
     3
 75
     0
 76
     0
 77
     0
 78
     0
281
     0
 65
     1
110
0.0
120
0.0
130
0.0
111
1.0
121
0.0
131
0.0
112
0.0
122
1.0
132
0.0
 79
     0
146
0.0
  0
VPORT
  5
1AE
330
8
100
AcDbSymbolTableRecord
100
AcDbViewportTableRecord
  2
L3
 70
     0
 10
0.0
 20
0.0
 11
1.0
 21
0.5
 12
0.0
 22
0.0
 13
0.0
 23
0.0
 14
0.5
 24
0.5
 15
0.5
 25
0.5
 16
0.0
 26
-1.0
 36
0.0
 17
0.0
 27
0.0
 37
0.0
 40
1554.140024
 41
0.011425
 42
50.0
 43
799.170128
 44
-799.170128
 50
0.0
 51
0.0
 71
     0
 72
   100
 73
     1
 74
     3
 75
     0
 76
     0
 77
     0
 78
     0
281
     0
 65
     1
110
0.0
120
0.0
130
0.0
111
1.0
121
0.0
131
0.0
112
0.0
122
1.0
132
0.0
 79
     0
146
0.0
  0
VPORT
  5
1AF
330
8
100
AcDbSymbolTableRecord
100
AcDbViewportTableRecord
  2
L4
 70
     0
 10
0.0
 20
0.5
 11
0.5
 21
1.0
 12
594.855903
 22
433.628853
 13
0.0
 23
0.0
 14
0.5
 24
0.5
 15
0.5
 25
0.5
 16
0.0
 26
0.0
 36
1.0
 17
0.0
 27
0.0
 37
0.0
 40
254.0
 41
0.069908
 42
50.0
 43
1333.843907
 44
-1333.843907
 50
0.0
 51
0.0
 71
     0
 72
   100
 73
     1
 74
     3
 75
     0
 76
     0
 77
     0
 78
     0
281
     0
 65
     1
110
0.0
120
0.0
130
0.0
111
1.0
121
0.0
131
0.0
112
0.0
122
1.0
132
0.0
 79
     0
146
0.0
  0
VPORT
  5
1B0
330
8
100
AcDbSymbolTableRecord
100
AcDbViewportTableRecord
  2
L4
 70
     0
 10
0.0
 20
0.0
 11
0.5
 21
0.5
 12
0.0
 22
0.0
 13
0.0
 23
0.0
 14
0.5
 24
0.5
 15
0.5
 25
0.5
 16
0.0
 26
-1.0
 36
0.0
 17
0.0
 27
0.0
 37
0.0
 40
1554.140024
 41
0.011425
 42
50.0
 43
799.170128
 44
-799.170128
 50
0.0
 51
0.0
 71
     0
 72
   100
 73
     1
 74
     3
 75
     0
 76
     0
 77
     0
 78
     0
281
     0
 65
     1
110
0.0
120
0.0
130
0.0
111
1.0
121
0.0
131
0.0
112
0.0
122
1.0
132
0.0
 79
     0
146
0.0
  0
VPORT
  5
1B1
330
8
100
AcDbSymbolTableRecord
100
AcDbViewportTableRecord
  2
L4
 70
     0
 10
0.5
 20
0.0
 11
1.0
 21
0.5
 12
0.0
 22
0.0
 13
0.0
 23
0.0
 14
0.5
 24
0.5
 15
0.5
 25
0.5
 16
1.0
 26
0.0
 36
0.0
 17
0.0
 27
0.0
 37
0.0
 40
1554.140024
 41
0.011425
 42
50.0
 43
787.379708
 44
-787.379708
 50
0.0
 51
0.0
 71
     0
 72
   100
 73
     1
 74
     3
 75
     0
 76
     0
 77
     0
 78
     0
281
     0
 65
     1
110
0.0
120
0.0
130
0.0
111
1.0
121
0.0
131
0.0
112
0.0
122
1.0
132
0.0
 79
     0
146
0.0
  0
VPORT
  5
1B2
330
8
100
AcDbSymbolTableRecord
100
AcDbViewportTableRecord
  2
L4
 70
     0
 10
0.5
 20
0.5
 11
1.0
 21
1.0
 12
0.0
 22
0.0
 13
0.0
 23
0.0
 14
0.5
 24
0.5
 15
0.5
 25
0.5
 16
0.5773502691896258
 26
-0.5773502691896258
 36
0.5773502691896258
 17
0.0
 27
0.0
 37
0.0
 40
1525.037316
 41
0.011643
 42
50.0
 43
794.116007
 44
-794.116007
 50
0.0
 51
0.0
 71
     0
 72
   100
 73
     1
 74
     3
 75
     0
 76
     0
 77
     0
 78
     0
281
     0
 65
     1
110
0.0
120
0.0
130
0.0
111
1.0
121
0.0
131
0.0
112
0.0
122
1.0
132
0.0
 79
     0
146
0.0
  0
VPORT
  5
1B3
330
8
100
AcDbSymbolTableRecord
100
AcDbViewportTableRecord
  2
L6
 70
     0
 10
0.0
 20
0.5
 11
0.333333
 21
1.0
 12
0.0
 22
0.0
 13
0.0
 23
0.0
 14
0.5
 24
0.5
 15
0.5
 25
0.5
 16
0.7188730927569433
 26
-0.5850486126764433
 36
0.3754192287502549
 17
0.0
 27
0.0
 37
0.0
 40
1609.344902
 41
0.011034
 42
50.0
 43
833.240238
 44
-833.240238
 50
0.0
 51
0.0
 71
     0
 72
   100
 73
     1
 74
     3
 75
     0
 76
     0
 77
     0
 78
     0
281
     0
 65
     1
110
0.0
120
0.0
130
0.0
111
1.0
121
0.0
131
0.0
112
0.0
122
1.0
132
0.0
 79
     0
146
0.0
  0
VPORT
  5
1B4
330
8
100
AcDbSymbolTableRecord
100
AcDbViewportTableRecord
  2
L6
 70
     0
 10
0.0
 20
0.0
 11
0.333333
 21
0.5
 12
0.0
 22
0.0
 13
0.0
 23
0.0
 14
0.5
 24
0.5
 15
0.5
 25
0.5
 16
-1.0
 26
0.0
 36
0.0
 17
0.0
 27
0.0
 37
0.0
 40
1554.140024
 41
0.011425
 42
50.0
 43
787.379708
 44
-787.379708
 50
0.0
 51
0.0
 71
     0
 72
   100
 73
     1
 74
     3
 75
     0
 76
     0
 77
     0
 78
     0
281
     0
 65
     1
110
0.0
120
0.0
130
0.0
111
1.0
121
0.0
131
0.0
112
0.0
122
1.0
132
0.0
 79
     0
146
0.0
  0
VPORT
  5
1B5
330
8
100
AcDbSymbolTableRecord
100
AcDbViewportTableRecord
  2
L6
 70
     0
 10
0.333333
 20
0.5
 11
0.666667
 21
1.0
 12
594.855903
 22
433.628853
 13
0.0
 23
0.0
 14
0.5
 24
0.5
 15
0.5
 25
0.5
 16
0.0
 26
0.0
 36
1.0
 17
0.0
 27
0.0
 37
0.0
 40
254.0
 41
0.069908
 42
50.0
 43
1333.843907
 44
-1333.843907
 50
0.0
 51
0.0
 71
     0
 72
   100
 73
     1
 74
     3
 75
     0
 76
     0
 77
     0
 78
     0
281
     0
 65
     1
110
0.0
120
0.0
130
0.0
111
1.0
121
0.0
131
0.0
112
0.0
122
1.0
132
0.0
 79
     0
146
0.0
  0
VPORT
  5
1B6
330
8
100
AcDbSymbolTableRecord
100
AcDbViewportTableRecord
  2
L6
 70
     0
 10
0.333333
 20
0.0
 11
0.666667
 21
0.5
 12
0.0
 22
0.0
 13
0.0
 23
0.0
 14
0.5
 24
0.5
 15
0.5
 25
0.5
 16
0.0
 26
-1.0
 36
0.0
 17
0.0
 27
0.0
 37
0.0
 40
1554.140024
 41
0.011425
 42
50.0
 43
799.170128
 44
-799.170128
 50
0.0
 51
0.0
 71
     0
 72
   100
 73
     1
 74
     3
 75
     0
 76
     0
 77
     0
 78
     0
281
     0
 65
     1
110
0.0
120
0.0
130
0.0
111
1.0
121
0.0
131
0.0
112
0.0
122
1.0
132
0.0
 79
     0
146
0.0
  0
VPORT
  5
1B7
330
8
100
AcDbSymbolTableRecord
100
AcDbViewportTableRecord
  2
L6
 70
     0
 10
0.666667
 20
0.5
 11
1.0
 21
1.0
 12
0.0
 22
0.0
 13
0.0
 23
0.0
 14
0.5
 24
0.5
 15
0.5
 25
0.5
 16
0.5773502691896258
 26
-0.5773502691896258
 36
0.5773502691896258
 17
0.0
 27
0.0
 37
0.0
 40
1525.037316
 41
0.011643
 42
50.0
 43
794.116007
 44
-794.116007
 50
0.0
 51
0.0
 71
     0
 72
   100
 73
     1
 74
     3
 75
     0
 76
     0
 77
     0
 78
     0
281
     0
 65
     1
110
0.0
120
0.0
130
0.0
111
1.0
121
0.0
131
0.0
112
0.0
122
1.0
132
0.0
 79
     0
146
0.0
  0
VPORT
  5
1B8
330
8
100
AcDbSymbolTableRecord
100
AcDbViewportTableRecord
  2
L6
 70
     0
 10
0.666667
 20
0.0
 11
1.0
 21
0.5
 12
0.0
 22
0.0
 13
0.0
 23
0.0
 14
0.5
 24
0.5
 15
0.5
 25
0.5
 16
1.0
 26
0.0
 36
0.0
 17
0.0
 27
0.0
 37
0.0
 40
1554.140024
 41
0.011425
 42
50.0
 43
787.379708
 44
-787.379708
 50
0.0
 51
0.0
 71
     0
 72
   100
 73
     1
 74
     3
 75
     0
 76
     0
 77
     0
 78
     0
281
     0
 65
     1
110
0.0
120
0.0
130
0.0
111
1.0
121
0.0
131
0.0
112
0.0
122
1.0
132
0.0
 79
     0
146
0.0
  0
ENDTAB
  0
TABLE
  2
LTYPE
  5
5
330
0
100
AcDbSymbolTable
 70
     6
  0
LTYPE
  5
14
330
5
100
AcDbSymbolTableRecord
100
AcDbLinetypeTableRecord
  2
ByBlock
 70
     0
  3

 72
    65
 73
     0
 40
0.0
  0
LTYPE
  5
15
330
5
100
AcDbSymbolTableRecord
100
AcDbLinetypeTableRecord
  2
ByLayer
 70
     0
  3

 72
    65
 73
     0
 40
0.0
  0
LTYPE
  5
16
330
5
100
AcDbSymbolTableRecord
100
AcDbLinetypeTableRecord
  2
Continuous
 70
     0
  3
Solid line
 72
    65
 73
     0
 40
0.0
  0
LTYPE
  5
6E
330
5
100
AcDbSymbolTableRecord
100
AcDbLinetypeTableRecord
  2
CENTER
 70
     0
  3
____ _ ____ _ ____ _ ____
 72
    65
 73
     4
 40
47.4
 49
22.0
 74
     4
 75
     0
340
0
 46
0.0
 50
0.0
 44
0.0
 45
0.0
 49
-8.5
 74
     4
 75
     0
340
0
 46
0.0
 50
0.0
 44
0.0
 45
0.0
 49
8.5
 74
     4
 75
     0
340
0
 46
0.0
 50
0.0
 44
0.0
 45
0.0
 49
-8.5
 74
     4
 75
     0
340
0
 46
0.0
 50
0.0
 44
0.0
 45
0.0
  0
LTYPE
  5
6F
330
5
100
AcDbSymbolTableRecord
100
AcDbLinetypeTableRecord
  2
DASHDOT
 70
     0
  3
_._._._._._._._._._._._._._._._.
 72
    65
 73
     4
 40
70.0
 49
31.0
 74
     4
 75
     0
340
0
 46
0.0
 50
0.0
 44
0.0
 45
0.0
 49
-13.0
 74
     4
 75
     0
340
0
 46
0.0
 50
0.0
 44
0.0
 45
0.0
 49
13.0
 74
     4
 75
     0
340
0
 46
0.0
 50
0.0
 44
0.0
 45
0.0
 49
-13.0
 74
     4
 75
     0
340
0
 46
0.0
 50
0.0
 44
0.0
 45
0.0
  0
LTYPE
  5
70
330
5
100
AcDbSymbolTableRecord
100
AcDbLinetypeTableRecord
  2
DASHED
 70
     0
  3
__ __ __ __ __ __ __ __ __
 72
    65
 73
     2
 40
25.72
 49
12.86
 74
     4
 75
     0
340
0
 46
0.0
 50
0.0
 44
0.0
 45
0.0
 49
-12.86
 74
     4
 75
     0
340
0
 46
0.0
 50
0.0
 44
0.0
 45
0.0
  0
LTYPE
  5
71
330
5
100
AcDbSymbolTableRecord
100
AcDbLinetypeTableRecord
  2
DOT
 70
     0
  3
.........................
 72
    65
 73
     2
 40
10.0
 49
0.0
 74
     4
 75
     0
340
0
 46
0.0
 50
0.0
 44
0.0
 45
0.0
 49
-10.0
 74
     4
 75
     0
340
0
 46
0.0
 50
0.0
 44
0.0
 45
0.0
  0
LTYPE
  5
72
330
5
100
AcDbSymbolTableRecord
100
AcDbLinetypeTableRecord
  2
PHANTOM
 70
     0
  3
____ _ _ ____ _ _ _____ _ _ ____
 72
    65
 73
     6
 40
50.5
 49
18.0
 74
     4
 75
     0
340
0
 46
0.0
 50
0.0
 44
0.0
 45
0.0
 49
-6.5
 74
     4
 75
     0
340
0
 46
0.0
 50
0.0
 44
0.0
 45
0.0
 49
6.5
 74
     4
 75
     0
340
0
 46
0.0
 50
0.0
 44
0.0
 45
0.0
 49
-6.5
 74
     4
 75
     0
340
0
 46
0.0
 50
0.0
 44
0.0
 45
0.0
 49
6.5
 74
     4
 75
     0
340
0
 46
0.0
 50
0.0
 44
0.0
 45
0.0
 49
-6.5
 74
     4
 75
     0
340
0
 46
0.0
 50
0.0
 44
0.0
 45
0.0
  0
ENDTAB
  0
TABLE
  2
LAYER
  5
2
330
0
100
AcDbSymbolTable
 70
     3
  0
LAYER
  5
10
330
2
100
AcDbSymbolTableRecord
100
AcDbLayerTableRecord
  2
0
 70
     0
 62
     7
  6
Continuous
370
    -3
390
F
  0
LAYER
  5
74
330
2
100
AcDbSymbolTableRecord
100
AcDbLayerTableRecord
  2
2
 70
     0
 62
     7
420
 16777215
  6
Continuous
370
    -3
390
F
  0
LAYER
  5
79
330
2
100
AcDbSymbolTableRecord
100
AcDbLayerTableRecord
  2
1
 70
     0
 62
     7
420
 16777215
  6
Continuous
370
    -3
390
F
  0
ENDTAB
  0
TABLE
  2
STYLE
  5
3
330
0
100
AcDbSymbolTable
 70
     1
  0
STYLE
  5
11
330
3
100
AcDbSymbolTableRecord
100
AcDbTextStyleTableRecord
  2
Standard
 70
     0
 40
0.0
 41
1.0
 50
0.0
 71
     0
 42
0.2
  3
txt
  4

  0
ENDTAB
  0
TABLE
  2
VIEW
  5
6
330
0
100
AcDbSymbolTable
 70
     0
  0
ENDTAB
  0
TABLE
  2
UCS
  5
7
330
0
100
AcDbSymbolTable
 70
     0
  0
ENDTAB
  0
TABLE
  2
APPID
  5
9
330
0
100
AcDbSymbolTable
 70
     2
  0
APPID
  5
12
330
9
100
AcDbSymbolTableRecord
100
AcDbRegAppTableRecord
  2
ACAD
 70
     0
  0
APPID
  5
1F8
330
9
100
AcDbSymbolTableRecord
100
AcDbRegAppTableRecord
  2
ACAD_MLEADERVER
 70
     0
  0
ENDTAB
  0
TABLE
  2
DIMSTYLE
  5
A
330
0
100
AcDbSymbolTable
 70
     1
100
AcDbDimStyleTable
  0
DIMSTYLE
105
27
330
A
100
AcDbSymbolTableRecord
100
AcDbDimStyleTableRecord
  2
Standard
 70
     0
178
     0
340
11
  0
ENDTAB
  0
TABLE
  2
BLOCK_RECORD
  5
1
330
0
100
AcDbSymbolTable
 70
     1
  0
BLOCK_RECORD
  5
1F
330
1
100
AcDbSymbolTableRecord
100
AcDbBlockTableRecord
  2
*Model_Space
340
22
  0
BLOCK_RECORD
  5
1B
330
1
100
AcDbSymbolTableRecord
100
AcDbBlockTableRecord
  2
*Paper_Space
340
1E
  0
BLOCK_RECORD
  5
23
330
1
100
AcDbSymbolTableRecord
100
AcDbBlockTableRecord
  2
*Paper_Space0
340
26
  0
ENDTAB
  0
ENDSEC
  0
SECTION
  2
BLOCKS
  0
BLOCK
  5
20
330
1F
100
AcDbEntity
  8
0
100
AcDbBlockBegin
  2
*Model_Space
 70
     0
 10
0.0
 20
0.0
 30
0.0
  3
*Model_Space
  1

  0
ENDBLK
  5
21
330
1F
100
AcDbEntity
  8
0
100
AcDbBlockEnd
  0
BLOCK
  5
1C
330
1B
100
AcDbEntity
 67
     1
  8
0
100
AcDbBlockBegin
  2
*Paper_Space
 70
     0
 10
0.0
 20
0.0
 30
0.0
  3
*Paper_Space
  1

  0
ENDBLK
  5
1D
330
1B
100
AcDbEntity
 67
     1
  8
0
100
AcDbBlockEnd
  0
BLOCK
  5
24
330
23
100
AcDbEntity
  8
0
100
AcDbBlockBegin
  2
*Paper_Space0
 70
     0
 10
0.0
 20
0.0
 30
0.0
  3
*Paper_Space0
  1

  0
ENDBLK
  5
25
330
23
100
AcDbEntity
  8
0
100
AcDbBlockEnd
  0
ENDSEC
  0
SECTION
  2
ENTITIES
  0
LINE
  5
73
330
1F
100
AcDbEntity
  8
2
  6
Continuous
 62
    30
370
    18
100
AcDbLine
 10
355.163895
 20
598.416741
 30
0.0
 11
355.163895
 21
663.416741
 31
0.0
  0
LINE
  5
75
330
1F
100
AcDbEntity
  8
2
  6
Continuous
 62
    30
370
    18
100
AcDbLine
 10
332.163895
 20
663.416741
 30
0.0
 11
332.163895
 21
598.416741
 31
0.0
  0
LINE
  5
76
330
1F
100
AcDbEntity
  8
2
  6
Continuous
 62
    30
370
    18
100
AcDbLine
 10
428.163895
 20
598.416741
 30
0.0
 11
428.163895
 21
663.416741
 31
0.0
  0
LINE
  5
77
330
1F
100
AcDbEntity
  8
2
  6
Continuous
 62
    30
370
    18
100
AcDbLine
 10
405.163895
 20
663.416741
 30
0.0
 11
405.163895
 21
598.416741
 31
0.0
  0
LINE
  5
78
330
1F
100
AcDbEntity
  8
1
  6
Continuous
 62
    30
370
    18
100
AcDbLine
 10
392.163895
 20
586.25185
 30
0.0
 11
391.663895
 21
586.25185
 31
0.0
  0
LINE
  5
7A
330
1F
100
AcDbEntity
  8
1
  6
Continuous
 62
    30
370
    18
100
AcDbLine
 10
368.163895
 20
578.72966
 30
0.0
 11
368.663895
 21
578.72966
 31
0.0
  0
LINE
  5
7B
330
1F
100
AcDbEntity
  8
1
  6
Continuous
 62
    30
370
    18
100
AcDbLine
 10
392.163895
 20
584.794053
 30
0.0
 11
391.663895
 21
584.794053
 31
0.0
  0
LINE
  5
7C
330
1F
100
AcDbEntity
  8
1
  6
Continuous
 62
    30
370
    18
100
AcDbLine
 10
421.300102
 20
526.416741
 30
0.0
 11
424.460173
 21
538.94982
 31
0.0
  0
LINE
  5
7D
330
1F
100
AcDbEntity
  8
1
  6
Continuous
 62
    30
370
    18
100
AcDbLine
 10
335.867616
 20
538.94982
 30
0.0
 11
339.027688
 21
526.416741
 31
0.0
  0
LINE
  5
7E
330
1F
100
AcDbEntity
  8
1
  6
Continuous
 62
    30
370
    18
100
AcDbLine
 10
392.163895
 20
588.41704
 30
0.0
 11
391.663895
 21
588.41704
 31
0.0
  0
LINE
  5
7F
330
1F
100
AcDbEntity
  8
1
  6
Continuous
 62
    30
370
    18
100
AcDbLine
 10
368.663895
 20
588.41704
 30
0.0
 11
368.163895
 21
588.41704
 31
0.0
  0
LINE
  5
80
330
1F
100
AcDbEntity
  8
1
  6
Continuous
 62
    30
370
    18
100
AcDbLine
 10
368.663895
 20
587.544245
 30
0.0
 11
368.163895
 21
587.544245
 31
0.0
  0
LINE
  5
81
330
1F
100
AcDbEntity
  8
1
  6
Continuous
 62
    30
370
    18
100
AcDbLine
 10
368.163895
 20
584.700977
 30
0.0
 11
368.663895
 21
584.700977
 31
0.0
  0
LINE
  5
82
330
1F
100
AcDbEntity
  8
1
  6
Continuous
 62
    30
370
    18
100
AcDbLine
 10
368.663895
 20
586.500977
 30
0.0
 11
368.163895
 21
586.500977
 31
0.0
  0
LINE
  5
83
330
1F
100
AcDbEntity
  8
1
  6
Continuous
 62
   252
370
    18
100
AcDbLine
 10
421.300102
 20
493.750074
 30
0.0
 11
421.300102
 21
526.416741
 31
0.0
  0
LINE
  5
84
330
1F
100
AcDbEntity
  8
1
  6
Continuous
 62
   252
370
    18
100
AcDbLine
 10
339.027688
 20
526.416741
 30
0.0
 11
339.027688
 21
493.750074
 31
0.0
  0
LINE
  5
85
330
1F
100
AcDbEntity
  8
1
  6
Continuous
 62
   252
370
    18
100
AcDbLine
 10
399.213895
 20
423.416741
 30
0.0
 11
399.213895
 21
476.416741
 31
0.0
  0
LINE
  5
86
330
1F
100
AcDbEntity
  8
1
  6
Continuous
 62
   252
370
    18
100
AcDbLine
 10
361.113895
 20
476.416741
 30
0.0
 11
361.113895
 21
423.416741
 31
0.0
  0
LINE
  5
87
330
1F
100
AcDbEntity
  8
1
  6
Continuous
 62
   252
370
    18
100
AcDbLine
 10
398.213895
 20
422.416741
 30
0.0
 11
399.213895
 21
423.416741
 31
0.0
  0
LINE
  5
88
330
1F
100
AcDbEntity
  8
1
  6
Continuous
 62
   252
370
    18
100
AcDbLine
 10
361.113895
 20
423.416741
 30
0.0
 11
362.113895
 21
422.416741
 31
0.0
  0
LINE
  5
89
330
1F
100
AcDbEntity
  8
1
  6
Continuous
 62
   252
370
    18
100
AcDbLine
 10
334.163895
 20
493.750074
 30
0.0
 11
334.163895
 21
478.416741
 31
0.0
  0
LINE
  5
8A
330
1F
100
AcDbEntity
  8
1
  6
Continuous
 62
   252
370
    18
100
AcDbLine
 10
426.163895
 20
478.416741
 30
0.0
 11
426.163895
 21
493.750074
 31
0.0
  0
LINE
  5
8B
330
1F
100
AcDbEntity
  8
2
  6
Continuous
 62
    30
370
    13
100
AcDbLine
 10
428.163895
 20
598.416741
 30
0.0
 11
405.163895
 21
598.416741
 31
0.0
  0
LINE
  5
8C
330
1F
100
AcDbEntity
  8
2
  6
Continuous
 62
    30
370
    13
100
AcDbLine
 10
332.163895
 20
598.416741
 30
0.0
 11
355.163895
 21
598.416741
 31
0.0
  0
LINE
  5
8D
330
1F
100
AcDbEntity
  8
2
  6
Continuous
 62
    30
370
    13
100
AcDbLine
 10
428.163895
 20
663.416741
 30
0.0
 11
405.163895
 21
663.416741
 31
0.0
  0
LINE
  5
8E
330
1F
100
AcDbEntity
  8
2
  6
Continuous
 62
    30
370
    13
100
AcDbLine
 10
332.163895
 20
663.416741
 30
0.0
 11
355.163895
 21
663.416741
 31
0.0
  0
LINE
  5
8F
330
1F
100
AcDbEntity
  8
1
  6
Continuous
 62
    30
370
    18
100
AcDbLine
 10
341.685532
 20
546.416741
 30
0.0
 11
357.163895
 21
546.416741
 31
0.0
  0
LINE
  5
90
330
1F
100
AcDbEntity
  8
1
  6
Continuous
 62
    30
370
    18
100
AcDbLine
 10
418.642258
 20
546.416741
 30
0.0
 11
403.163895
 21
546.416741
 31
0.0
  0
LINE
  5
91
330
1F
100
AcDbEntity
  8
1
  6
Continuous
 62
    30
370
    13
100
AcDbLine
 10
424.460173
 20
538.94982
 30
0.0
 11
406.641487
 21
538.94982
 31
0.0
  0
LINE
  5
92
330
1F
100
AcDbEntity
  8
1
  6
Continuous
 62
    30
370
    13
100
AcDbLine
 10
335.867616
 20
538.94982
 30
0.0
 11
353.686302
 21
538.94982
 31
0.0
  0
LINE
  5
93
330
1F
100
AcDbEntity
  8
1
  6
Continuous
 62
    30
370
    18
100
AcDbLine
 10
368.163895
 20
578.239486
 30
0.0
 11
368.663895
 21
578.239486
 31
0.0
  0
LINE
  5
94
330
1F
100
AcDbEntity
  8
1
  6
Continuous
 62
    30
370
    18
100
AcDbLine
 10
368.163895
 20
578.54287
 30
0.0
 11
368.663895
 21
578.54287
 31
0.0
  0
LINE
  5
95
330
1F
100
AcDbEntity
  8
1
  6
Continuous
 62
    30
370
    18
100
AcDbLine
 10
392.163895
 20
588.41704
 30
0.0
 11
392.163895
 21
586.765493
 31
0.0
  0
LINE
  5
96
330
1F
100
AcDbEntity
  8
1
  6
Continuous
 62
    30
370
    18
100
AcDbLine
 10
392.163895
 20
586.760667
 30
0.0
 11
391.663895
 21
586.760667
 31
0.0
  0
LINE
  5
97
330
1F
100
AcDbEntity
  8
1
  6
Continuous
 62
    30
370
    18
100
AcDbLine
 10
392.163895
 20
586.76027
 30
0.0
 11
392.163895
 21
586.759278
 31
0.0
  0
LINE
  5
98
330
1F
100
AcDbEntity
  8
1
  6
Continuous
 62
    30
370
    18
100
AcDbLine
 10
392.163895
 20
586.76027
 30
0.0
 11
391.663895
 21
586.76027
 31
0.0
  0
LINE
  5
99
330
1F
100
AcDbEntity
  8
1
  6
Continuous
 62
    30
370
    18
100
AcDbLine
 10
392.163895
 20
586.759246
 30
0.0
 11
391.663895
 21
586.759246
 31
0.0
  0
LINE
  5
9A
330
1F
100
AcDbEntity
  8
1
  6
Continuous
 62
    30
370
    18
100
AcDbLine
 10
392.163895
 20
586.758828
 30
0.0
 11
392.163895
 21
586.757803
 31
0.0
  0
LINE
  5
9B
330
1F
100
AcDbEntity
  8
1
  6
Continuous
 62
    30
370
    18
100
AcDbLine
 10
392.163895
 20
586.758828
 30
0.0
 11
391.663895
 21
586.758828
 31
0.0
  0
LINE
  5
9C
330
1F
100
AcDbEntity
  8
1
  6
Continuous
 62
    30
370
    18
100
AcDbLine
 10
392.163895
 20
586.757799
 30
0.0
 11
391.663895
 21
586.757799
 31
0.0
  0
LINE
  5
9D
330
1F
100
AcDbEntity
  8
1
  6
Continuous
 62
    30
370
    18
100
AcDbLine
 10
392.163895
 20
586.757378
 30
0.0
 11
391.663895
 21
586.757378
 31
0.0
  0
LINE
  5
9E
330
1F
100
AcDbEntity
  8
1
  6
Continuous
 62
    30
370
    18
100
AcDbLine
 10
368.163895
 20
578.734811
 30
0.0
 11
368.663895
 21
578.734811
 31
0.0
  0
LINE
  5
9F
330
1F
100
AcDbEntity
  8
1
  6
Continuous
 62
    30
370
    18
100
AcDbLine
 10
368.163895
 20
588.41704
 30
0.0
 11
368.163895
 21
587.54425
 31
0.0
  0
LINE
  5
A0
330
1F
100
AcDbEntity
  8
1
  6
Continuous
 62
    30
370
    13
100
AcDbLine
 10
392.163895
 20
584.621107
 30
0.0
 11
391.663895
 21
584.621107
 31
0.0
  0
LINE
  5
A1
330
1F
100
AcDbEntity
  8
1
  6
Continuous
 62
    30
370
    18
100
AcDbLine
 10
368.163895
 20
579.114364
 30
0.0
 11
368.663895
 21
579.114364
 31
0.0
  0
LINE
  5
A2
330
1F
100
AcDbEntity
  8
1
  6
Continuous
 62
    30
370
    18
100
AcDbLine
 10
368.163895
 20
584.019549
 30
0.0
 11
368.663895
 21
584.019549
 31
0.0
  0
LINE
  5
A3
330
1F
100
AcDbEntity
  8
1
  6
Continuous
 62
    30
370
    18
100
AcDbLine
 10
368.163895
 20
583.740237
 30
0.0
 11
368.663895
 21
583.740237
 31
0.0
  0
LINE
  5
A4
330
1F
100
AcDbEntity
  8
1
  6
Continuous
 62
    30
370
    18
100
AcDbLine
 10
392.163895
 20
578.239486
 30
0.0
 11
391.663895
 21
578.239486
 31
0.0
  0
LINE
  5
A5
330
1F
100
AcDbEntity
  8
1
  6
Continuous
 62
    30
370
    18
100
AcDbLine
 10
392.163895
 20
583.737422
 30
0.0
 11
391.663895
 21
583.737422
 31
0.0
  0
LINE
  5
A6
330
1F
100
AcDbEntity
  8
1
  6
Continuous
 62
    30
370
    18
100
AcDbLine
 10
392.163895
 20
584.013627
 30
0.0
 11
391.663895
 21
584.013627
 31
0.0
  0
LINE
  5
A7
330
1F
100
AcDbEntity
  8
1
  6
Continuous
 62
    30
370
    18
100
AcDbLine
 10
368.163895
 20
587.544245
 30
0.0
 11
368.163895
 21
586.644245
 31
0.0
  0
LINE
  5
A8
330
1F
100
AcDbEntity
  8
1
  6
Continuous
 62
    30
370
    18
100
AcDbLine
 10
368.163895
 20
586.644245
 30
0.0
 11
368.163895
 21
586.500923
 31
0.0
  0
LINE
  5
A9
330
1F
100
AcDbEntity
  8
1
  6
Continuous
 62
    30
370
    18
100
AcDbLine
 10
368.163895
 20
586.500977
 30
0.0
 11
368.163895
 21
585.600977
 31
0.0
  0
LINE
  5
AA
330
1F
100
AcDbEntity
  8
1
  6
Continuous
 62
    30
370
    18
100
AcDbLine
 10
368.163895
 20
585.600977
 30
0.0
 11
368.163895
 21
584.700977
 31
0.0
  0
LINE
  5
AB
330
1F
100
AcDbEntity
  8
1
  6
Continuous
 62
    30
370
    18
100
AcDbLine
 10
368.663895
 20
591.036811
 30
0.0
 11
368.663895
 21
557.916741
 31
0.0
  0
LINE
  5
AC
330
1F
100
AcDbEntity
  8
1
  6
Continuous
 62
    30
370
    13
100
AcDbLine
 10
373.838895
 20
558.891741
 30
0.0
 11
373.838895
 21
596.979822
 31
0.0
  0
LINE
  5
AD
330
1F
100
AcDbEntity
  8
1
  6
Continuous
 62
    30
370
    18
100
AcDbLine
 10
391.663895
 20
591.036811
 30
0.0
 11
391.663895
 21
557.916741
 31
0.0
  0
LINE
  5
AE
330
1F
100
AcDbEntity
  8
1
  6
Continuous
 62
    30
370
    13
100
AcDbLine
 10
386.488895
 20
558.891741
 30
0.0
 11
386.488895
 21
596.979822
 31
0.0
  0
LINE
  5
AF
330
1F
100
AcDbEntity
  8
1
  6
Continuous
 62
    30
370
    18
100
AcDbLine
 10
421.300102
 20
526.416741
 30
0.0
 11
339.027688
 21
526.416741
 31
0.0
  0
LINE
  5
B0
330
1F
100
AcDbEntity
  8
1
  6
Continuous
 62
    30
370
    13
100
AcDbLine
 10
399.22978
 20
540.17035
 30
0.0
 11
361.098009
 21
540.17035
 31
0.0
  0
LINE
  5
B1
330
1F
100
AcDbEntity
  8
1
  6
Continuous
 62
   252
370
    18
100
AcDbLine
 10
421.300102
 20
526.416741
 30
0.0
 11
421.094691
 21
526.416741
 31
0.0
  0
LINE
  5
B2
330
1F
100
AcDbEntity
  8
1
  6
Continuous
 62
   252
370
    18
100
AcDbLine
 10
339.233099
 20
526.416741
 30
0.0
 11
339.027688
 21
526.416741
 31
0.0
  0
LINE
  5
B3
330
1F
100
AcDbEntity
  8
1
  6
Continuous
 62
   252
370
    18
100
AcDbLine
 10
362.113895
 20
422.416741
 30
0.0
 11
380.163895
 21
422.416741
 31
0.0
  0
LINE
  5
B4
330
1F
100
AcDbEntity
  8
1
  6
Continuous
 62
   252
370
    18
100
AcDbLine
 10
380.163895
 20
422.416741
 30
0.0
 11
398.213895
 21
422.416741
 31
0.0
  0
LINE
  5
B5
330
1F
100
AcDbEntity
  8
1
  6
Continuous
 62
   252
370
    18
100
AcDbLine
 10
399.213895
 20
423.416741
 30
0.0
 11
380.163895
 21
423.416741
 31
0.0
  0
LINE
  5
B6
330
1F
100
AcDbEntity
  8
1
  6
Continuous
 62
   252
370
    18
100
AcDbLine
 10
380.163895
 20
423.416741
 30
0.0
 11
361.113895
 21
423.416741
 31
0.0
  0
LINE
  5
B7
330
1F
100
AcDbEntity
  8
1
  6
Continuous
 62
   252
370
    13
100
AcDbLine
 10
399.213895
 20
476.416741
 30
0.0
 11
361.113895
 21
476.416741
 31
0.0
  0
LINE
  5
B8
330
1F
100
AcDbEntity
  8
1
  6
Continuous
 62
   252
370
    18
100
AcDbLine
 10
339.233099
 20
493.750074
 30
0.0
 11
339.233099
 21
526.416741
 31
0.0
  0
LINE
  5
B9
330
1F
100
AcDbEntity
  8
1
  6
Continuous
 62
   252
370
    18
100
AcDbLine
 10
421.094691
 20
526.416741
 30
0.0
 11
421.094691
 21
493.750074
 31
0.0
  0
LINE
  5
BA
330
1F
100
AcDbEntity
  8
1
  6
Continuous
 62
   252
370
    18
100
AcDbLine
 10
404.185004
 20
526.416741
 30
0.0
 11
397.073581
 21
526.416741
 31
0.0
  0
LINE
  5
BB
330
1F
100
AcDbEntity
  8
1
  6
Continuous
 62
   252
370
    18
100
AcDbLine
 10
404.185004
 20
493.750074
 30
0.0
 11
404.185004
 21
526.416741
 31
0.0
  0
LINE
  5
BC
330
1F
100
AcDbEntity
  8
1
  6
Continuous
 62
   252
370
    18
100
AcDbLine
 10
397.073581
 20
526.416741
 30
0.0
 11
397.073581
 21
493.750074
 31
0.0
  0
LINE
  5
BD
330
1F
100
AcDbEntity
  8
1
  6
Continuous
 62
   252
370
    18
100
AcDbLine
 10
363.254208
 20
493.750074
 30
0.0
 11
363.254208
 21
526.416741
 31
0.0
  0
LINE
  5
BE
330
1F
100
AcDbEntity
  8
1
  6
Continuous
 62
   252
370
    18
100
AcDbLine
 10
363.254208
 20
526.416741
 30
0.0
 11
356.142785
 21
526.416741
 31
0.0
  0
LINE
  5
BF
330
1F
100
AcDbEntity
  8
1
  6
Continuous
 62
   252
370
    18
100
AcDbLine
 10
356.142785
 20
526.416741
 30
0.0
 11
356.142785
 21
493.750074
 31
0.0
  0
LINE
  5
C0
330
1F
100
AcDbEntity
  8
1
  6
Continuous
 62
   252
370
    18
100
AcDbLine
 10
426.163895
 20
493.750074
 30
0.0
 11
334.163895
 21
493.750074
 31
0.0
  0
LINE
  5
C1
330
1F
100
AcDbEntity
  8
1
  6
Continuous
 62
   252
370
    13
100
AcDbLine
 10
426.163895
 20
478.416741
 30
0.0
 11
334.163895
 21
478.416741
 31
0.0
  0
LINE
  5
C2
330
1F
100
AcDbEntity
  8
1
  6
Continuous
 62
   252
370
    18
100
AcDbLine
 10
425.163895
 20
477.416741
 30
0.0
 11
335.163895
 21
477.416741
 31
0.0
  0
LINE
  5
C3
330
1F
100
AcDbEntity
  8
2
  6
Continuous
 62
    30
370
    18
100
AcDbLine
 10
823.047911
 20
717.416741
 30
0.0
 11
823.047911
 21
753.916741
 31
0.0
  0
LINE
  5
C4
330
1F
100
AcDbEntity
  8
2
  6
Continuous
 62
    30
370
    18
100
AcDbLine
 10
800.047911
 20
753.916741
 30
0.0
 11
800.047911
 21
717.416741
 31
0.0
  0
LINE
  5
C5
330
1F
100
AcDbEntity
  8
2
  6
Continuous
 62
    30
370
    18
100
AcDbLine
 10
800.047911
 20
652.416741
 30
0.0
 11
800.047911
 21
615.916741
 31
0.0
  0
LINE
  5
C6
330
1F
100
AcDbEntity
  8
2
  6
Continuous
 62
    30
370
    18
100
AcDbLine
 10
823.047911
 20
615.916741
 30
0.0
 11
823.047911
 21
652.416741
 31
0.0
  0
LINE
  5
C7
330
1F
100
AcDbEntity
  8
2
  6
Continuous
 62
    30
370
    18
100
AcDbLine
 10
823.047911
 20
652.416741
 30
0.0
 11
823.047911
 21
717.416741
 31
0.0
  0
LINE
  5
C8
330
1F
100
AcDbEntity
  8
2
  6
Continuous
 62
    30
370
    18
100
AcDbLine
 10
800.047911
 20
717.416741
 30
0.0
 11
800.047911
 21
652.416741
 31
0.0
  0
LINE
  5
C9
330
1F
100
AcDbEntity
  8
1
  6
Continuous
 62
    30
370
    18
100
AcDbLine
 10
766.94389
 20
594.17035
 30
0.0
 11
770.411704
 21
580.416741
 31
0.0
  0
LINE
  5
CA
330
1F
100
AcDbEntity
  8
1
  6
Continuous
 62
    30
370
    18
100
AcDbLine
 10
852.684117
 20
580.416741
 30
0.0
 11
856.151932
 21
594.17035
 31
0.0
  0
LINE
  5
CB
330
1F
100
AcDbEntity
  8
1
  6
Continuous
 62
   252
370
    18
100
AcDbLine
 10
830.597911
 20
477.416741
 30
0.0
 11
830.597911
 21
530.416741
 31
0.0
  0
LINE
  5
CC
330
1F
100
AcDbEntity
  8
1
  6
Continuous
 62
   252
370
    18
100
AcDbLine
 10
792.497911
 20
530.416741
 30
0.0
 11
792.497911
 21
477.416741
 31
0.0
  0
LINE
  5
CD
330
1F
100
AcDbEntity
  8
1
  6
Continuous
 62
   252
370
    18
100
AcDbLine
 10
829.597911
 20
476.416741
 30
0.0
 11
830.597911
 21
477.416741
 31
0.0
  0
LINE
  5
CE
330
1F
100
AcDbEntity
  8
1
  6
Continuous
 62
   252
370
    18
100
AcDbLine
 10
792.497911
 20
477.416741
 30
0.0
 11
793.497911
 21
476.416741
 31
0.0
  0
LINE
  5
CF
330
1F
100
AcDbEntity
  8
1
  6
Continuous
 62
   252
370
    18
100
AcDbLine
 10
765.547911
 20
547.750074
 30
0.0
 11
765.547911
 21
532.416741
 31
0.0
  0
LINE
  5
D0
330
1F
100
AcDbEntity
  8
1
  6
Continuous
 62
   252
370
    18
100
AcDbLine
 10
857.547911
 20
532.416741
 30
0.0
 11
857.547911
 21
547.750074
 31
0.0
  0
LINE
  5
D1
330
1F
100
AcDbEntity
  8
2
  6
Continuous
 62
    30
370
    13
100
AcDbLine
 10
823.047911
 20
652.416741
 30
0.0
 11
811.547911
 21
652.416741
 31
0.0
  0
LINE
  5
D2
330
1F
100
AcDbEntity
  8
2
  6
Continuous
 62
    30
370
    13
100
AcDbLine
 10
811.547911
 20
652.416741
 30
0.0
 11
800.047911
 21
652.416741
 31
0.0
  0
LINE
  5
D3
330
1F
100
AcDbEntity
  8
2
  6
Continuous
 62
    30
370
    13
100
AcDbLine
 10
823.047911
 20
717.416741
 30
0.0
 11
811.547911
 21
717.416741
 31
0.0
  0
LINE
  5
D4
330
1F
100
AcDbEntity
  8
2
  6
Continuous
 62
    30
370
    13
100
AcDbLine
 10
811.547911
 20
717.416741
 30
0.0
 11
800.047911
 21
717.416741
 31
0.0
  0
LINE
  5
D5
330
1F
100
AcDbEntity
  8
1
  6
Continuous
 62
    30
370
    13
100
AcDbLine
 10
772.464666
 20
611.916741
 30
0.0
 11
766.602179
 21
612.891741
 31
0.0
  0
LINE
  5
D6
330
1F
100
AcDbEntity
  8
1
  6
Continuous
 62
    30
370
    13
100
AcDbLine
 10
850.631155
 20
611.916741
 30
0.0
 11
856.493642
 21
612.891741
 31
0.0
  0
LINE
  5
D7
330
1F
100
AcDbEntity
  8
1
  6
Continuous
 62
    30
370
    18
100
AcDbLine
 10
780.700149
 20
600.416741
 30
0.0
 11
842.395672
 21
600.416741
 31
0.0
  0
LINE
  5
D8
330
1F
100
AcDbEntity
  8
1
  6
Continuous
 62
    30
370
    13
100
AcDbLine
 10
847.059844
 20
592.94982
 30
0.0
 11
776.035978
 21
592.94982
 31
0.0
  0
LINE
  5
D9
330
1F
100
AcDbEntity
  8
1
  6
Continuous
 62
    30
370
    13
100
AcDbLine
 10
772.464666
 20
611.916741
 30
0.0
 11
792.150746
 21
611.916741
 31
0.0
  0
LINE
  5
DA
330
1F
100
AcDbEntity
  8
1
  6
Continuous
 62
    30
370
    13
100
AcDbLine
 10
830.945075
 20
611.916741
 30
0.0
 11
850.631155
 21
611.916741
 31
0.0
  0
LINE
  5
DB
330
1F
100
AcDbEntity
  8
1
  6
Continuous
 62
    30
370
    13
100
AcDbLine
 10
798.119104
 20
612.532125
 30
0.0
 11
792.150746
 21
611.916741
 31
0.0
  0
LINE
  5
DC
330
1F
100
AcDbEntity
  8
1
  6
Continuous
 62
    30
370
    13
100
AcDbLine
 10
824.976717
 20
612.532125
 30
0.0
 11
830.945075
 21
611.916741
 31
0.0
  0
LINE
  5
DD
330
1F
100
AcDbEntity
  8
1
  6
Continuous
 62
    30
370
    18
100
AcDbLine
 10
770.411704
 20
580.416741
 30
0.0
 11
852.684117
 21
580.416741
 31
0.0
  0
LINE
  5
DE
330
1F
100
AcDbEntity
  8
1
  6
Continuous
 62
    30
370
    13
100
AcDbLine
 10
766.94389
 20
594.17035
 30
0.0
 11
771.224088
 21
594.17035
 31
0.0
  0
LINE
  5
DF
330
1F
100
AcDbEntity
  8
1
  6
Continuous
 62
    30
370
    13
100
AcDbLine
 10
856.151932
 20
594.17035
 30
0.0
 11
851.871734
 21
594.17035
 31
0.0
  0
LINE
  5
E0
330
1F
100
AcDbEntity
  8
1
  6
Continuous
 62
   252
370
    18
100
AcDbLine
 10
829.597911
 20
476.416741
 30
0.0
 11
793.497911
 21
476.416741
 31
0.0
  0
LINE
  5
E1
330
1F
100
AcDbEntity
  8
1
  6
Continuous
 62
   252
370
    18
100
AcDbLine
 10
830.597911
 20
477.416741
 30
0.0
 11
792.497911
 21
477.416741
 31
0.0
  0
LINE
  5
E2
330
1F
100
AcDbEntity
  8
1
  6
Continuous
 62
   252
370
    13
100
AcDbLine
 10
830.597911
 20
530.416741
 30
0.0
 11
792.497911
 21
530.416741
 31
0.0
  0
LINE
  5
E3
330
1F
100
AcDbEntity
  8
1
  6
Continuous
 62
   252
370
    18
100
AcDbLine
 10
778.153693
 20
580.416741
 30
0.0
 11
774.047911
 21
580.416741
 31
0.0
  0
LINE
  5
E4
330
1F
100
AcDbEntity
  8
1
  6
Continuous
 62
   252
370
    18
100
AcDbLine
 10
774.047911
 20
580.416741
 30
0.0
 11
774.047911
 21
547.750074
 31
0.0
  0
LINE
  5
E5
330
1F
100
AcDbEntity
  8
1
  6
Continuous
 62
   252
370
    18
100
AcDbLine
 10
849.047911
 20
580.416741
 30
0.0
 11
844.942129
 21
580.416741
 31
0.0
  0
LINE
  5
E6
330
1F
100
AcDbEntity
  8
1
  6
Continuous
 62
   252
370
    18
100
AcDbLine
 10
849.047911
 20
547.750074
 30
0.0
 11
849.047911
 21
580.416741
 31
0.0
  0
LINE
  5
E7
330
1F
100
AcDbEntity
  8
1
  6
Continuous
 62
   252
370
    18
100
AcDbLine
 10
844.942129
 20
580.416741
 30
0.0
 11
844.942129
 21
547.750074
 31
0.0
  0
LINE
  5
E8
330
1F
100
AcDbEntity
  8
1
  6
Continuous
 62
   252
370
    18
100
AcDbLine
 10
778.153693
 20
547.750074
 30
0.0
 11
778.153693
 21
580.416741
 31
0.0
  0
LINE
  5
E9
330
1F
100
AcDbEntity
  8
1
  6
Continuous
 62
   252
370
    18
100
AcDbLine
 10
815.653693
 20
547.750074
 30
0.0
 11
815.653693
 21
580.416741
 31
0.0
  0
LINE
  5
EA
330
1F
100
AcDbEntity
  8
1
  6
Continuous
 62
   252
370
    18
100
AcDbLine
 10
815.653693
 20
580.416741
 30
0.0
 11
807.442129
 21
580.416741
 31
0.0
  0
LINE
  5
EB
330
1F
100
AcDbEntity
  8
1
  6
Continuous
 62
   252
370
    18
100
AcDbLine
 10
807.442129
 20
580.416741
 30
0.0
 11
807.442129
 21
547.750074
 31
0.0
  0
LINE
  5
EC
330
1F
100
AcDbEntity
  8
1
  6
Continuous
 62
   252
370
    18
100
AcDbLine
 10
857.547911
 20
547.750074
 30
0.0
 11
765.547911
 21
547.750074
 31
0.0
  0
LINE
  5
ED
330
1F
100
AcDbEntity
  8
1
  6
Continuous
 62
   252
370
    13
100
AcDbLine
 10
765.547911
 20
532.416741
 30
0.0
 11
857.547911
 21
532.416741
 31
0.0
  0
LINE
  5
EE
330
1F
100
AcDbEntity
  8
1
  6
Continuous
 62
   252
370
    18
100
AcDbLine
 10
856.547911
 20
531.416741
 30
0.0
 11
766.547911
 21
531.416741
 31
0.0
  0
LINE
  5
EF
330
1F
100
AcDbEntity
  8
2
  6
Continuous
 62
    30
370
    18
100
AcDbLine
 10
343.663895
 20
136.340966
 30
0.0
 11
416.663895
 21
136.340966
 31
0.0
  0
LINE
  5
F0
330
1F
100
AcDbEntity
  8
2
  6
Continuous
 62
    30
370
    18
100
AcDbLine
 10
416.663895
 20
159.340966
 30
0.0
 11
343.663895
 21
159.340966
 31
0.0
  0
LINE
  5
F1
330
1F
100
AcDbEntity
  8
1
  6
Continuous
 62
    30
370
    18
100
AcDbLine
 10
368.163895
 20
134.935529
 30
0.0
 11
368.663895
 21
134.935529
 31
0.0
  0
LINE
  5
F2
330
1F
100
AcDbEntity
  8
1
  6
Continuous
 62
    30
370
    18
100
AcDbLine
 10
392.163895
 20
160.746403
 30
0.0
 11
391.663895
 21
160.746403
 31
0.0
  0
LINE
  5
F3
330
1F
100
AcDbEntity
  8
1
  6
Continuous
 62
    30
370
    18
100
AcDbLine
 10
392.163895
 20
162.840966
 30
0.0
 11
391.663895
 21
162.840966
 31
0.0
  0
LINE
  5
F4
330
1F
100
AcDbEntity
  8
1
  6
Continuous
 62
    30
370
    18
100
AcDbLine
 10
391.663895
 20
161.040966
 30
0.0
 11
392.163895
 21
161.040966
 31
0.0
  0
LINE
  5
F5
330
1F
100
AcDbEntity
  8
1
  6
Continuous
 62
    30
370
    18
100
AcDbLine
 10
368.163895
 20
132.840966
 30
0.0
 11
368.663895
 21
132.840966
 31
0.0
  0
LINE
  5
F6
330
1F
100
AcDbEntity
  8
1
  6
Continuous
 62
    30
370
    18
100
AcDbLine
 10
368.663895
 20
134.640966
 30
0.0
 11
368.163895
 21
134.640966
 31
0.0
  0
LINE
  5
F7
330
1F
100
AcDbEntity
  8
1
  6
Continuous
 62
    30
370
    13
100
AcDbLine
 10
353.577464
 20
183.498874
 30
0.0
 11
357.163895
 21
178.688728
 31
0.0
  0
LINE
  5
F8
330
1F
100
AcDbEntity
  8
1
  6
Continuous
 62
    30
370
    13
100
AcDbLine
 10
406.750326
 20
112.183058
 30
0.0
 11
403.163895
 21
116.993204
 31
0.0
  0
LINE
  5
F9
330
1F
100
AcDbEntity
  8
1
  6
Continuous
 62
    30
370
    13
100
AcDbLine
 10
406.750326
 20
183.498874
 30
0.0
 11
403.163895
 21
178.688728
 31
0.0
  0
LINE
  5
FA
330
1F
100
AcDbEntity
  8
1
  6
Continuous
 62
    30
370
    13
100
AcDbLine
 10
353.577464
 20
112.183058
 30
0.0
 11
357.163895
 21
116.993204
 31
0.0
  0
LINE
  5
FB
330
1F
100
AcDbEntity
  8
1
  6
Continuous
 62
    30
370
    13
100
AcDbLine
 10
357.163895
 20
116.993204
 30
0.0
 11
357.163895
 21
136.340535
 31
0.0
  0
LINE
  5
FC
330
1F
100
AcDbEntity
  8
1
  6
Continuous
 62
    30
370
    13
100
AcDbLine
 10
357.163895
 20
159.341397
 30
0.0
 11
357.163895
 21
178.688728
 31
0.0
  0
LINE
  5
FD
330
1F
100
AcDbEntity
  8
1
  6
Continuous
 62
    30
370
    18
100
AcDbLine
 10
392.163895
 20
135.339153
 30
0.0
 11
391.663895
 21
135.339153
 31
0.0
  0
LINE
  5
FE
330
1F
100
AcDbEntity
  8
1
  6
Continuous
 62
    30
370
    18
100
AcDbLine
 10
368.163895
 20
159.491936
 30
0.0
 11
368.663895
 21
159.491936
 31
0.0
  0
LINE
  5
FF
330
1F
100
AcDbEntity
  8
1
  6
Continuous
 62
    30
370
    18
100
AcDbLine
 10
368.163895
 20
160.34278
 30
0.0
 11
368.663895
 21
160.34278
 31
0.0
  0
LINE
  5
100
330
1F
100
AcDbEntity
  8
1
  6
Continuous
 62
    30
370
    18
100
AcDbLine
 10
368.163895
 20
159.718665
 30
0.0
 11
368.663895
 21
159.718665
 31
0.0
  0
LINE
  5
101
330
1F
100
AcDbEntity
  8
1
  6
Continuous
 62
    30
370
    18
100
AcDbLine
 10
392.163895
 20
135.963267
 30
0.0
 11
391.663895
 21
135.963267
 31
0.0
  0
LINE
  5
102
330
1F
100
AcDbEntity
  8
1
  6
Continuous
 62
    30
370
    18
100
AcDbLine
 10
392.163895
 20
136.189996
 30
0.0
 11
391.663895
 21
136.189996
 31
0.0
  0
LINE
  5
103
330
1F
100
AcDbEntity
  8
1
  6
Continuous
 62
    30
370
    18
100
AcDbLine
 10
392.163895
 20
136.205706
 30
0.0
 11
391.663895
 21
136.205706
 31
0.0
  0
LINE
  5
104
330
1F
100
AcDbEntity
  8
1
  6
Continuous
 62
    30
370
    18
100
AcDbLine
 10
368.163895
 20
159.476226
 30
0.0
 11
368.663895
 21
159.476226
 31
0.0
  0
LINE
  5
105
330
1F
100
AcDbEntity
  8
1
  6
Continuous
 62
    30
370
    18
100
AcDbLine
 10
392.163895
 20
162.840966
 30
0.0
 11
392.163895
 21
161.040966
 31
0.0
  0
LINE
  5
106
330
1F
100
AcDbEntity
  8
1
  6
Continuous
 62
    30
370
    18
100
AcDbLine
 10
368.163895
 20
132.840966
 30
0.0
 11
368.163895
 21
134.640966
 31
0.0
  0
LINE
  5
107
330
1F
100
AcDbEntity
  8
1
  6
Continuous
 62
    30
370
    18
100
AcDbLine
 10
392.163895
 20
160.746403
 30
0.0
 11
392.163895
 21
159.340894
 31
0.0
  0
LINE
  5
108
330
1F
100
AcDbEntity
  8
1
  6
Continuous
 62
    30
370
    18
100
AcDbLine
 10
368.163895
 20
134.935529
 30
0.0
 11
368.163895
 21
136.341038
 31
0.0
  0
LINE
  5
109
330
1F
100
AcDbEntity
  8
1
  6
Continuous
 62
    30
370
    18
100
AcDbLine
 10
368.663895
 20
108.757722
 30
0.0
 11
368.663895
 21
136.342014
 31
0.0
  0
LINE
  5
10A
330
1F
100
AcDbEntity
  8
1
  6
Continuous
 62
    30
370
    18
100
AcDbLine
 10
368.663895
 20
159.339918
 30
0.0
 11
368.663895
 21
186.924211
 31
0.0
  0
LINE
  5
10B
330
1F
100
AcDbEntity
  8
1
  6
Continuous
 62
    30
370
    13
100
AcDbLine
 10
373.838895
 20
192.786697
 30
0.0
 11
373.838895
 21
159.340384
 31
0.0
  0
LINE
  5
10C
330
1F
100
AcDbEntity
  8
1
  6
Continuous
 62
    30
370
    13
100
AcDbLine
 10
373.838895
 20
136.341548
 30
0.0
 11
373.838895
 21
102.895235
 31
0.0
  0
LINE
  5
10D
330
1F
100
AcDbEntity
  8
1
  6
Continuous
 62
    30
370
    13
100
AcDbLine
 10
403.163895
 20
136.340535
 30
0.0
 11
403.163895
 21
116.993204
 31
0.0
  0
LINE
  5
10E
330
1F
100
AcDbEntity
  8
1
  6
Continuous
 62
    30
370
    13
100
AcDbLine
 10
403.163895
 20
178.688728
 30
0.0
 11
403.163895
 21
159.341397
 31
0.0
  0
LINE
  5
10F
330
1F
100
AcDbEntity
  8
1
  6
Continuous
 62
    30
370
    18
100
AcDbLine
 10
391.663895
 20
186.924211
 30
0.0
 11
391.663895
 21
159.339918
 31
0.0
  0
LINE
  5
110
330
1F
100
AcDbEntity
  8
1
  6
Continuous
 62
    30
370
    18
100
AcDbLine
 10
391.663895
 20
136.342014
 30
0.0
 11
391.663895
 21
108.757722
 31
0.0
  0
LINE
  5
111
330
1F
100
AcDbEntity
  8
1
  6
Continuous
 62
    30
370
    13
100
AcDbLine
 10
386.488895
 20
102.895235
 30
0.0
 11
386.488895
 21
136.341548
 31
0.0
  0
LINE
  5
112
330
1F
100
AcDbEntity
  8
1
  6
Continuous
 62
    30
370
    13
100
AcDbLine
 10
386.488895
 20
159.340384
 30
0.0
 11
386.488895
 21
192.786697
 31
0.0
  0
ARC
  5
113
330
1F
100
AcDbEntity
  8
2
  6
Continuous
 62
    30
370
    18
100
AcDbCircle
 10
380.163895
 20
598.416741
 30
0.0
 40
48.00000000000003
100
AcDbArc
 50
180.0
 51
254.266875
  0
ARC
  5
114
330
1F
100
AcDbEntity
  8
2
  6
Continuous
 62
    30
370
    18
100
AcDbCircle
 10
380.163895
 20
598.416741
 30
0.0
 40
48.00000000000003
100
AcDbArc
 50
285.7275
 51
0.0
  0
ARC
  5
115
330
1F
100
AcDbEntity
  8
2
  6
Continuous
 62
    30
370
    18
100
AcDbCircle
 10
380.163895
 20
663.416741
 30
0.0
 40
48.00000000000001
100
AcDbArc
 50
0.0
 51
180.0
  0
ARC
  5
116
330
1F
100
AcDbEntity
  8
2
  6
Continuous
 62
    30
370
    18
100
AcDbCircle
 10
380.163895
 20
663.416741
 30
0.0
 40
25.00000000000002
100
AcDbArc
 50
0.0
 51
180.0
  0
ARC
  5
117
330
1F
100
AcDbEntity
  8
1
  6
Continuous
 62
    30
370
    18
100
AcDbCircle
 10
341.685532
 20
540.416741
 30
0.0
 40
6.0
100
AcDbArc
 50
90.0
 51
194.151505
  0
ARC
  5
118
330
1F
100
AcDbEntity
  8
1
  6
Continuous
 62
    30
370
    18
100
AcDbCircle
 10
418.642258
 20
540.416741
 30
0.0
 40
6.0
100
AcDbArc
 50
345.848495
 51
90.0
  0
ARC
  5
119
330
1F
100
AcDbEntity
  8
1
  6
Continuous
 62
    30
370
    18
100
AcDbCircle
 10
374.663895
 20
591.036811
 30
0.0
 40
6.0
100
AcDbArc
 50
97.903208
 51
180.0
  0
ARC
  5
11A
330
1F
100
AcDbEntity
  8
1
  6
Continuous
 62
    30
370
    18
100
AcDbCircle
 10
385.663895
 20
591.036811
 30
0.0
 40
6.0
100
AcDbArc
 50
0.0
 51
82.096792
  0
ARC
  5
11B
330
1F
100
AcDbEntity
  8
1
  6
Continuous
 62
    30
370
    18
100
AcDbCircle
 10
380.163895
 20
551.416741
 30
0.0
 40
46.00000000000002
100
AcDbArc
 50
82.096792
 51
97.903208
  0
ARC
  5
11C
330
1F
100
AcDbEntity
  8
1
  6
Continuous
 62
   252
370
    18
100
AcDbCircle
 10
360.113895
 20
476.416741
 30
0.0
 40
1.0
100
AcDbArc
 50
0.0
 51
90.0
  0
ARC
  5
11D
330
1F
100
AcDbEntity
  8
1
  6
Continuous
 62
   252
370
    18
100
AcDbCircle
 10
400.213895
 20
476.416741
 30
0.0
 40
1.0
100
AcDbArc
 50
90.0
 51
180.0
  0
ARC
  5
11E
330
1F
100
AcDbEntity
  8
1
  6
Continuous
 62
   252
370
    18
100
AcDbCircle
 10
335.163895
 20
478.416741
 30
0.0
 40
1.0
100
AcDbArc
 50
180.0
 51
270.0
  0
ARC
  5
11F
330
1F
100
AcDbEntity
  8
1
  6
Continuous
 62
   252
370
    18
100
AcDbCircle
 10
425.163895
 20
478.416741
 30
0.0
 40
1.0
100
AcDbArc
 50
270.0
 51
0.0
  0
ARC
  5
120
330
1F
100
AcDbEntity
  8
2
  6
Continuous
 62
    30
370
    18
100
AcDbCircle
 10
380.163895
 20
598.416741
 30
0.0
 40
25.00000000000002
100
AcDbArc
 50
297.385313
 51
0.0
  0
ARC
  5
121
330
1F
100
AcDbEntity
  8
2
  6
Continuous
 62
    30
370
    18
100
AcDbCircle
 10
380.163895
 20
598.416741
 30
0.0
 40
25.00000000000002
100
AcDbArc
 50
180.0
 51
242.614687
  0
ARC
  5
122
330
1F
100
AcDbEntity
  8
2
  6
Continuous
 62
    30
370
    18
100
AcDbCircle
 10
811.547911
 20
753.916741
 30
0.0
 40
11.5
100
AcDbArc
 50
0.0
 51
180.0
  0
ARC
  5
123
330
1F
100
AcDbEntity
  8
2
  6
Continuous
 62
    30
370
    18
100
AcDbCircle
 10
811.547911
 20
615.916741
 30
0.0
 40
11.5
100
AcDbArc
 50
180.0
 51
0.0
  0
ARC
  5
124
330
1F
100
AcDbEntity
  8
1
  6
Continuous
 62
    30
370
    18
100
AcDbCircle
 10
811.547911
 20
605.416741
 30
0.0
 40
46.00000000000002
100
AcDbArc
 50
0.0
 51
75.524935
  0
ARC
  5
125
330
1F
100
AcDbEntity
  8
1
  6
Continuous
 62
    30
370
    18
100
AcDbCircle
 10
811.547911
 20
605.416741
 30
0.0
 40
46.00000000000002
100
AcDbArc
 50
104.474745
 51
194.151505
  0
ARC
  5
126
330
1F
100
AcDbEntity
  8
1
  6
Continuous
 62
    30
370
    18
100
AcDbCircle
 10
811.547911
 20
605.416741
 30
0.0
 40
46.00000000000002
100
AcDbArc
 50
345.848495
 51
0.0
  0
ARC
  5
127
330
1F
100
AcDbEntity
  8
1
  6
Continuous
 62
   252
370
    18
100
AcDbCircle
 10
791.497911
 20
530.416741
 30
0.0
 40
1.0
100
AcDbArc
 50
0.0
 51
90.0
  0
ARC
  5
128
330
1F
100
AcDbEntity
  8
1
  6
Continuous
 62
   252
370
    18
100
AcDbCircle
 10
831.597911
 20
530.416741
 30
0.0
 40
1.0
100
AcDbArc
 50
90.0
 51
180.0
  0
ARC
  5
129
330
1F
100
AcDbEntity
  8
1
  6
Continuous
 62
   252
370
    18
100
AcDbCircle
 10
766.547911
 20
532.416741
 30
0.0
 40
1.0
100
AcDbArc
 50
180.0
 51
270.0
  0
ARC
  5
12A
330
1F
100
AcDbEntity
  8
1
  6
Continuous
 62
   252
370
    18
100
AcDbCircle
 10
856.547911
 20
532.416741
 30
0.0
 40
1.0
100
AcDbArc
 50
270.0
 51
0.0
  0
ARC
  5
12B
330
1F
100
AcDbEntity
  8
1
  6
Continuous
 62
    30
370
    18
100
AcDbCircle
 10
811.547911
 20
613.916741
 30
0.0
 40
13.5
100
AcDbArc
 50
354.113158
 51
31.586936
  0
ARC
  5
12C
330
1F
100
AcDbEntity
  8
1
  6
Continuous
 62
    30
370
    18
100
AcDbCircle
 10
811.547911
 20
613.916741
 30
0.0
 40
13.5
100
AcDbArc
 50
148.413064
 51
185.886842
  0
ARC
  5
12D
330
1F
100
AcDbEntity
  8
1
  6
Continuous
 62
    30
370
    13
100
AcDbCircle
 10
811.547911
 20
613.916741
 30
0.0
 40
19.5
100
AcDbArc
 50
126.137355
 51
185.886842
  0
ARC
  5
12E
330
1F
100
AcDbEntity
  8
1
  6
Continuous
 62
    30
370
    13
100
AcDbCircle
 10
811.547911
 20
613.916741
 30
0.0
 40
19.5
100
AcDbArc
 50
354.113158
 51
53.862645
  0
ARC
  5
12F
330
1F
100
AcDbEntity
  8
1
  6
Continuous
 62
    30
370
    13
100
AcDbCircle
 10
811.547911
 20
605.416741
 30
0.0
 40
45.56308127201234
100
AcDbArc
 50
104.618664
 51
170.557469
  0
ARC
  5
130
330
1F
100
AcDbEntity
  8
1
  6
Continuous
 62
    30
370
    13
100
AcDbCircle
 10
811.547911
 20
605.416741
 30
0.0
 40
45.56308127201234
100
AcDbArc
 50
9.442531
 51
75.381336
  0
ARC
  5
131
330
1F
100
AcDbEntity
  8
1
  6
Continuous
 62
    30
370
    13
100
AcDbCircle
 10
811.547911
 20
605.416741
 30
0.0
 40
39.62007067131508
100
AcDbArc
 50
9.442531
 51
73.128246
  0
ARC
  5
132
330
1F
100
AcDbEntity
  8
1
  6
Continuous
 62
    30
370
    13
100
AcDbCircle
 10
811.547911
 20
605.416741
 30
0.0
 40
39.62007067131508
100
AcDbArc
 50
106.871754
 51
170.557469
  0
ARC
  5
133
330
1F
100
AcDbEntity
  8
1
  6
Continuous
 62
    30
370
    18
100
AcDbCircle
 10
823.553348
 20
640.644245
 30
0.0
 40
0.9000000000000004
100
AcDbArc
 50
0.0
 51
124.171859
  0
ARC
  5
134
330
1F
100
AcDbEntity
  8
1
  6
Continuous
 62
    30
370
    18
100
AcDbCircle
 10
823.553348
 20
640.644245
 30
0.0
 40
0.9000000000000004
100
AcDbArc
 50
235.828141
 51
0.0
  0
CIRCLE
  5
135
330
1F
100
AcDbEntity
  8
1
  6
Continuous
 62
    30
370
    18
100
AcDbCircle
 10
825.647911
 20
639.600977
 30
0.0
 40
0.9000000000000004
  0
ARC
  5
136
330
1F
100
AcDbEntity
  8
1
  6
Continuous
 62
    30
370
    18
100
AcDbCircle
 10
380.163895
 20
147.840966
 30
0.0
 40
44.47836272655172
100
AcDbArc
 50
126.708103
 51
168.202506
  0
ARC
  5
137
330
1F
100
AcDbEntity
  8
1
  6
Continuous
 62
    30
370
    18
100
AcDbCircle
 10
380.163895
 20
147.840966
 30
0.0
 40
44.47836272655172
100
AcDbArc
 50
191.797494
 51
233.291897
  0
ARC
  5
138
330
1F
100
AcDbEntity
  8
1
  6
Continuous
 62
    30
370
    18
100
AcDbCircle
 10
380.163895
 20
147.840966
 30
0.0
 40
44.47836272655172
100
AcDbArc
 50
306.708103
 51
348.202506
  0
ARC
  5
139
330
1F
100
AcDbEntity
  8
1
  6
Continuous
 62
    30
370
    18
100
AcDbCircle
 10
380.163895
 20
147.840966
 30
0.0
 40
44.47836272655172
100
AcDbArc
 50
11.797494
 51
53.291897
  0
ARC
  5
13A
330
1F
100
AcDbEntity
  8
1
  6
Continuous
 62
    30
370
    18
100
AcDbCircle
 10
380.163895
 20
147.840966
 30
0.0
 40
46.00000000000002
100
AcDbArc
 50
270.0
 51
279.731557
  0
ARC
  5
13B
330
1F
100
AcDbEntity
  8
1
  6
Continuous
 62
    30
370
    18
100
AcDbCircle
 10
380.163895
 20
147.840966
 30
0.0
 40
46.00000000000002
100
AcDbArc
 50
80.281197
 51
99.731552
  0
ARC
  5
13C
330
1F
100
AcDbEntity
  8
1
  6
Continuous
 62
    30
370
    18
100
AcDbCircle
 10
380.163895
 20
147.840966
 30
0.0
 40
46.00000000000002
100
AcDbArc
 50
260.281194
 51
270.0
  0
ARC
  5
13D
330
1F
100
AcDbEntity
  8
2
  6
Continuous
 62
    30
370
    18
100
AcDbCircle
 10
416.663895
 20
147.840966
 30
0.0
 40
11.5
100
AcDbArc
 50
269.999999
 51
0.0
  0
ARC
  5
13E
330
1F
100
AcDbEntity
  8
2
  6
Continuous
 62
    30
370
    18
100
AcDbCircle
 10
416.663895
 20
147.840966
 30
0.0
 40
11.5
100
AcDbArc
 50
0.0
 51
90.000001
  0
ARC
  5
13F
330
1F
100
AcDbEntity
  8
2
  6
Continuous
 62
    30
370
    18
100
AcDbCircle
 10
343.663895
 20
147.840966
 30
0.0
 40
11.5
100
AcDbArc
 50
180.0
 51
270.000001
  0
ARC
  5
140
330
1F
100
AcDbEntity
  8
2
  6
Continuous
 62
    30
370
    18
100
AcDbCircle
 10
343.663895
 20
147.840966
 30
0.0
 40
11.5
100
AcDbArc
 50
89.999999
 51
180.0
  0
ARC
  5
141
330
1F
100
AcDbEntity
  8
1
  6
Continuous
 62
    30
370
    13
100
AcDbCircle
 10
380.163895
 20
147.840966
 30
0.0
 40
38.47836272655172
100
AcDbArc
 50
126.708103
 51
162.615183
  0
ARC
  5
142
330
1F
100
AcDbEntity
  8
1
  6
Continuous
 62
    30
370
    13
100
AcDbCircle
 10
380.163895
 20
147.840966
 30
0.0
 40
38.47836272655172
100
AcDbArc
 50
197.384817
 51
233.291897
  0
ARC
  5
143
330
1F
100
AcDbEntity
  8
1
  6
Continuous
 62
    30
370
    13
100
AcDbCircle
 10
380.163895
 20
147.840966
 30
0.0
 40
38.47836272655172
100
AcDbArc
 50
306.708103
 51
342.615183
  0
ARC
  5
144
330
1F
100
AcDbEntity
  8
1
  6
Continuous
 62
    30
370
    13
100
AcDbCircle
 10
380.163895
 20
147.840966
 30
0.0
 40
38.47836272655172
100
AcDbArc
 50
17.384817
 51
53.291897
  0
ARC
  5
145
330
1F
100
AcDbEntity
  8
1
  6
Continuous
 62
   252
370
    18
100
AcDbCircle
 10
380.163895
 20
147.840966
 30
0.0
 40
46.0
100
AcDbArc
 50
279.731251
 51
350.926876
  0
ARC
  5
146
330
1F
100
AcDbEntity
  8
1
  6
Continuous
 62
   252
370
    18
100
AcDbCircle
 10
380.163895
 20
147.840966
 30
0.0
 40
46.0
100
AcDbArc
 50
189.0675
 51
260.28
  0
ARC
  5
147
330
1F
100
AcDbEntity
  8
1
  6
Continuous
 62
   252
370
    18
100
AcDbCircle
 10
380.163895
 20
147.840966
 30
0.0
 40
46.0
100
AcDbArc
 50
99.736875
 51
170.932499
  0
ARC
  5
148
330
1F
100
AcDbEntity
  8
1
  6
Continuous
 62
   252
370
    18
100
AcDbCircle
 10
380.163895
 20
147.840966
 30
0.0
 40
46.0
100
AcDbArc
 50
9.073125
 51
80.285625
  0
ELLIPSE
  5
149
330
1F
100
AcDbEntity
  8
1
  6
Continuous
 62
    30
370
    13
100
AcDbEllipse
 10
403.163895
 20
540.416741
 30
0.0
 11
0.0
 21
-6.0
 31
0.0
210
0.0
220
0.0
230
1.0
 40
0.597739
 41
1.32380597420003
 42
3.141592653589793
  0
ELLIPSE
  5
14A
330
1F
100
AcDbEntity
  8
1
  6
Continuous
 62
    30
370
    13
100
AcDbEllipse
 10
357.163895
 20
540.416741
 30
0.0
 11
0.0
 21
-6.0
 31
0.0
210
0.0
220
0.0
230
1.0
 40
0.597739
 41
3.141592653589794
 42
4.959379332979556
  0
ELLIPSE
  5
14B
330
1F
100
AcDbEntity
  8
1
  6
Continuous
 62
    30
370
    13
100
AcDbEllipse
 10
374.663895
 20
557.916741
 30
0.0
 11
-6.0
 21
0.0
 31
0.0
210
0.0
220
0.0
230
1.0
 40
0.164058
 41
4.850325976803074
 42
6.283185307179586
  0
ELLIPSE
  5
14C
330
1F
100
AcDbEntity
  8
1
  6
Continuous
 62
    30
370
    13
100
AcDbEllipse
 10
363.584864
 20
541.63727
 30
0.0
 11
2.201475156853169
 21
-5.581532686794759
 31
0.0
210
0.0
220
0.0
230
1.0
 40
0.476629
 41
3.141592653589797
 42
4.787819276904663
  0
ELLIPSE
  5
14D
330
1F
100
AcDbEntity
  8
1
  6
Continuous
 62
    30
370
    13
100
AcDbEllipse
 10
385.663895
 20
557.916741
 30
0.0
 11
6.0
 21
0.0
 31
0.0
210
0.0
220
0.0
230
1.0
 40
0.164058
 41
0.0
 42
1.432859330376512
  0
ELLIPSE
  5
14E
330
1F
100
AcDbEntity
  8
1
  6
Continuous
 62
    30
370
    13
100
AcDbEllipse
 10
396.742926
 20
541.63727
 30
0.0
 11
2.201475156853143
 21
5.581532686794769
 31
0.0
210
0.0
220
0.0
230
1.0
 40
0.476629
 41
4.63695868386477
 42
6.283185307179585
  0
ELLIPSE
  5
14F
330
1F
100
AcDbEntity
  8
1
  6
Continuous
 62
    30
370
    13
100
AcDbEllipse
 10
776.483717
 20
595.63727
 30
0.0
 11
3.362779217101606
 21
4.969075964103339
 31
0.0
210
0.0
220
0.0
230
1.0
 40
0.817792
 41
0.6912992693278689
 42
2.337525892642688
  0
ELLIPSE
  5
150
330
1F
100
AcDbEntity
  8
1
  6
Continuous
 62
    30
370
    13
100
AcDbEllipse
 10
846.612105
 20
595.63727
 30
0.0
 11
3.362779217101588
 21
-4.96907596410335
 31
0.0
210
0.0
220
0.0
230
1.0
 40
0.817792
 41
0.80406676094705
 42
2.450293384261922
  0
ELLIPSE
  5
151
330
1F
100
AcDbEntity
  8
1
  6
Continuous
 62
    30
370
    13
100
AcDbEllipse
 10
842.395672
 20
594.416741
 30
0.0
 11
0.0
 21
-6.0
 31
0.0
210
0.0
220
0.0
230
1.0
 40
0.801691
 41
1.32380597420003
 42
3.141592653589793
  0
ELLIPSE
  5
152
330
1F
100
AcDbEntity
  8
1
  6
Continuous
 62
    30
370
    13
100
AcDbEllipse
 10
780.700149
 20
594.416741
 30
0.0
 11
0.0
 21
-6.0
 31
0.0
210
0.0
220
0.0
230
1.0
 40
0.801691
 41
3.141592653589793
 42
4.959379332979556
  0
ELLIPSE
  5
153
330
1F
100
AcDbEntity
  8
1
  6
Continuous
 62
    30
370
    13
100
AcDbEllipse
 10
396.742926
 20
182.90516
 30
0.0
 11
3.021256860860915
 21
5.183821657879528
 31
0.0
210
0.0
220
0.0
230
1.0
 40
0.322554
 41
4.898212730107224
 42
6.282277909940481
  0
ELLIPSE
  5
154
330
1F
100
AcDbEntity
  8
1
  6
Continuous
 62
    30
370
    13
100
AcDbEllipse
 10
396.742926
 20
112.776772
 30
0.0
 11
-3.021256860860887
 21
5.183821657879543
 31
0.0
210
0.0
220
0.0
230
1.0
 40
0.322554
 41
3.142706216636555
 42
4.526565230662162
  0
ELLIPSE
  5
155
330
1F
100
AcDbEntity
  8
1
  6
Continuous
 62
    30
370
    13
100
AcDbEllipse
 10
363.584864
 20
182.90516
 30
0.0
 11
3.021256860860875
 21
-5.183821657879551
 31
0.0
210
0.0
220
0.0
230
1.0
 40
0.322554
 41
3.142706216636563
 42
4.526565230662161
  0
ELLIPSE
  5
156
330
1F
100
AcDbEntity
  8
1
  6
Continuous
 62
    30
370
    13
100
AcDbEllipse
 10
363.584864
 20
112.776772
 30
0.0
 11
-3.021256860860926
 21
-5.183821657879522
 31
0.0
210
0.0
220
0.0
230
1.0
 40
0.322554
 41
4.898212730107225
 42
6.282277909940477
  0
ELLIPSE
  5
157
330
1F
100
AcDbEntity
  8
1
  6
Continuous
 62
    30
370
    13
100
AcDbEllipse
 10
374.663895
 20
108.757722
 30
0.0
 11
-6.0
 21
0.0
 31
0.0
210
0.0
220
0.0
230
1.0
 40
0.986451
 41
0.0
 42
1.432859330376513
  0
ELLIPSE
  5
158
330
1F
100
AcDbEntity
  8
1
  6
Continuous
 62
    30
370
    13
100
AcDbEllipse
 10
374.663895
 20
186.924211
 30
0.0
 11
-6.0
 21
0.0
 31
0.0
210
0.0
220
0.0
230
1.0
 40
0.986451
 41
4.850325976803074
 42
6.283185307179586
  0
ELLIPSE
  5
159
330
1F
100
AcDbEntity
  8
1
  6
Continuous
 62
    30
370
    13
100
AcDbEllipse
 10
385.663895
 20
186.924211
 30
0.0
 11
6.0
 21
0.0
 31
0.0
210
0.0
220
0.0
230
1.0
 40
0.986451
 41
0.0
 42
1.432859330376512
  0
ELLIPSE
  5
15A
330
1F
100
AcDbEntity
  8
1
  6
Continuous
 62
    30
370
    13
100
AcDbEllipse
 10
385.663895
 20
108.757722
 30
0.0
 11
6.0
 21
0.0
 31
0.0
210
0.0
220
0.0
230
1.0
 40
0.986451
 41
4.850325976803074
 42
6.283185307179586
  0
SPLINE
  5
15B
330
1F
100
AcDbEntity
  8
1
  6
Continuous
 62
    30
370
    18
100
AcDbSpline
210
0.0
220
0.0
230
1.0
 70
     8
 71
     3
 72
    14
 73
    10
 74
     0
 42
0.000000001
 43
0.0000000001
 40
0.0
 40
0.0
 40
0.0
 40
0.0
 40
0.25
 40
0.25
 40
0.5
 40
0.5
 40
0.75
 40
0.75
 40
1.0
 40
1.0
 40
1.0
 40
1.0
 10
398.9444007851057
 20
547.2188029484544
 30
0.0
 10
399.3091930624537
 20
547.0749211186671
 30
0.0
 10
399.67177576949
 20
546.9534093509907
 30
0.0
 10
400.3905905592072
 20
546.7499008035808
 30
0.0
 10
400.7468298155741
 20
546.6679133031821
 30
0.0
 10
401.4516210722455
 20
546.5392875711068
 30
0.0
 10
401.8001778435017
 20
546.4926555726782
 30
0.0
 10
402.4886661265013
 20
546.4313799640928
 30
0.0
 10
402.8286008518724
 20
546.4167405981447
 30
0.0
 10
403.163894835741
 20
546.4167405981447
 30
0.0
  0
SPLINE
  5
15C
330
1F
100
AcDbEntity
  8
1
  6
Continuous
 62
    30
370
    18
100
AcDbSpline
210
0.0
220
0.0
230
1.0
 70
     8
 71
     3
 72
    14
 73
    10
 74
     0
 42
0.000000001
 43
0.0000000001
 40
0.0
 40
0.0
 40
0.0
 40
0.0
 40
0.25
 40
0.25
 40
0.5
 40
0.5
 40
0.75
 40
0.75
 40
1.0
 40
1.0
 40
1.0
 40
1.0
 10
357.163894835741
 20
546.4167405981447
 30
0.0
 10
357.4991888196096
 20
546.4167405981447
 30
0.0
 10
357.8391235449807
 20
546.4313799640928
 30
0.0
 10
358.5276118279803
 20
546.4926555726782
 30
0.0
 10
358.8761685992365
 20
546.5392875711068
 30
0.0
 10
359.5809598559079
 20
546.6679133031821
 30
0.0
 10
359.9371991122748
 20
546.7499008035808
 30
0.0
 10
360.656013901992
 20
546.9534093509907
 30
0.0
 10
361.0185966090282
 20
547.0749211186674
 30
0.0
 10
361.3833888863762
 20
547.2188029484547
 30
0.0
  0
SPLINE
  5
15D
330
1F
100
AcDbEntity
  8
1
  6
Continuous
 62
    30
370
    13
100
AcDbSpline
210
0.0
220
0.0
230
1.0
 70
     8
 71
     3
 72
    14
 73
    10
 74
     0
 42
0.000000001
 43
0.0000000001
 40
0.0
 40
0.0
 40
0.0
 40
0.0
 40
0.25
 40
0.25
 40
0.5
 40
0.5
 40
0.75
 40
0.75
 40
1.0
 40
1.0
 40
1.0
 40
1.0
 10
406.6414872697028
 20
538.9498200476719
 30
0.0
 10
406.0385975354951
 20
538.9498200476719
 30
0.0
 10
405.4310930119562
 20
538.9732912971388
 30
0.0
 10
404.2081027008504
 20
539.0695246035502
 30
0.0
 10
403.5926141518629
 20
539.1422807628416
 30
0.0
 10
402.3551284209155
 20
539.3404105420557
 30
0.0
 10
401.733127076319
 20
539.4657739419825
 30
0.0
 10
400.484418056436
 20
539.7736647862083
 30
0.0
 10
399.8577039086214
 20
539.9561751156444
 30
0.0
 10
399.2297802471294
 20
540.1703497111872
 30
0.0
  0
SPLINE
  5
15E
330
1F
100
AcDbEntity
  8
1
  6
Continuous
 62
    30
370
    13
100
AcDbSpline
210
0.0
220
0.0
230
1.0
 70
     8
 71
     3
 72
    14
 73
    10
 74
     0
 42
0.000000001
 43
0.0000000001
 40
0.0
 40
0.0
 40
0.0
 40
0.0
 40
0.25
 40
0.25
 40
0.5
 40
0.5
 40
0.75
 40
0.75
 40
1.0
 40
1.0
 40
1.0
 40
1.0
 10
361.0980094243527
 20
540.1703497111872
 30
0.0
 10
360.4700857628605
 20
539.9561751156446
 30
0.0
 10
359.843371615046
 20
539.7736647862083
 30
0.0
 10
358.5946625951631
 20
539.4657739419824
 30
0.0
 10
357.9726612505664
 20
539.3404105420556
 30
0.0
 10
356.7351755196191
 20
539.1422807628416
 30
0.0
 10
356.1196869706316
 20
539.0695246035502
 30
0.0
 10
354.8966966595257
 20
538.9732912971388
 30
0.0
 10
354.2891921359869
 20
538.9498200476719
 30
0.0
 10
353.6863024017791
 20
538.9498200476719
 30
0.0
  0
SPLINE
  5
15F
330
1F
100
AcDbEntity
  8
1
  6
Continuous
 62
    30
370
    18
100
AcDbSpline
210
0.0
220
0.0
230
1.0
 70
     8
 71
     3
 72
    55
 73
    51
 74
     0
 42
0.000000001
 43
0.0000000001
 40
0.0
 40
0.0
 40
0.0
 40
0.0
 40
0.0625000000000007
 40
0.0625000000000007
 40
0.1250000000000014
 40
0.1250000000000014
 40
0.1875000000000021
 40
0.1875000000000021
 40
0.2500000000000027
 40
0.2500000000000027
 40
0.2812500000000024
 40
0.2812500000000024
 40
0.2968750000000022
 40
0.2968750000000022
 40
0.312500000000002
 40
0.374999999999994
 40
0.374999999999994
 40
0.4374999999999861
 40
0.4374999999999861
 40
0.4999999999999781
 40
0.4999999999999781
 40
0.5156249999999775
 40
0.5156249999999775
 40
0.5312499999999768
 40
0.5624999999999754
 40
0.5624999999999754
 40
0.5781249999999745
 40
0.5781249999999745
 40
0.5937499999999735
 40
0.5937499999999735
 40
0.6249999999999735
 40
0.6249999999999735
 40
0.6874999999999734
 40
0.6874999999999734
 40
0.7499999999999732
 40
0.7499999999999732
 40
0.7656249999999752
 40
0.7656249999999752
 40
0.7812499999999772
 40
0.7812499999999772
 40
0.8124999999999839
 40
0.8124999999999839
 40
0.8281249999999859
 40
0.8281249999999859
 40
0.843749999999988
 40
0.8749999999999893
 40
0.8749999999999893
 40
0.9374999999999947
 40
0.9374999999999947
 40
1.0
 40
1.0
 40
1.0
 40
1.0
 10
361.3833888863762
 20
547.2188029484547
 30
0.0
 10
361.6065158785942
 20
547.3068089779372
 30
0.0
 10
361.8289098463793
 20
547.4025836979457
 30
0.0
 10
362.2718660355991
 20
547.6105050781838
 30
0.0
 10
362.4924287688362
 20
547.7226496880901
 30
0.0
 10
362.9313170086153
 20
547.9643738023296
 30
0.0
 10
363.1496432350851
 20
548.0939502898808
 30
0.0
 10
363.5835943081912
 20
548.3719068110221
 30
0.0
 10
363.7992202187894
 20
548.520282245209
 30
0.0
 10
364.1202213231805
 20
548.7582874028998
 30
0.0
 10
364.2268146380663
 20
548.8401998010048
 30
0.0
 10
364.3860340802652
 20
548.9671421726979
 30
0.0
 10
364.4390448490489
 20
549.0101774436781
 30
0.0
 10
364.5444351689895
 20
549.097313217077
 30
0.0
 10
364.8064876831683
 20
549.317936198198
 30
0.0
 10
365.0613204456114
 20
549.552585103901
 30
0.0
 10
365.4590894729208
 20
549.9469115957992
 30
0.0
 10
365.6529944781054
 20
550.1535152703693
 30
0.0
 10
366.0299183634512
 20
550.5869311167262
 30
0.0
 10
366.2129406739768
 20
550.8137373373497
 30
0.0
 10
366.4341599456696
 20
551.1110314021296
 30
0.0
 10
366.4780466626764
 20
551.1712134080682
 30
0.0
 10
366.5647454082799
 20
551.2925750023838
 30
0.0
 10
366.6932841539526
 20
551.4762487567835
 30
0.0
 10
366.817234863345
 20
551.6648691523169
 30
0.0
 10
366.9380314856145
 20
551.856875062052
 30
0.0
 10
366.9777711696347
 20
551.9214414841767
 30
0.0
 10
367.0561806506339
 20
552.0517204345499
 30
0.0
 10
367.0947563113069
 20
552.1172773548025
 30
0.0
 10
367.2085043100909
 20
552.3150484664021
 30
0.0
 10
367.2817378933623
 20
552.448428081311
 30
0.0
 10
367.4936115623247
 20
552.8531734730637
 30
0.0
 10
367.6244372500345
 20
553.1291378739929
 30
0.0
 10
367.8647794246592
 20
553.6935715913214
 30
0.0
 10
367.9742982711724
 20
553.9820395196248
 30
0.0
 10
368.0973203813178
 20
554.3507555620421
 30
0.0
 10
368.1212298069125
 20
554.424906054524
 30
0.0
 10
368.1676397119926
 20
554.5740325868389
 30
0.0
 10
368.1901607644195
 20
554.6490823003478
 30
0.0
 10
368.2553707282142
 20
554.8747532787954
 30
0.0
 10
368.295738347347
 20
555.0259710013121
 30
0.0
 10
368.351641342416
 20
555.2539506496892
 30
0.0
 10
368.3695156905908
 20
555.3302053630165
 30
0.0
 10
368.4036222708752
 20
555.4826842205939
 30
0.0
 10
368.4523243081767
 20
555.7113563136533
 30
0.0
 10
368.4937606021679
 20
555.9398909447953
 30
0.0
 10
368.5671787265408
 20
556.3967774885153
 30
0.0
 10
368.6035338176257
 20
556.7011256587095
 30
0.0
 10
368.6518929138344
 20
557.3093199246777
 30
0.0
 10
368.6638948357409
 20
557.6131660130189
 30
0.0
 10
368.663894835741
 20
557.9167405981447
 30
0.0
  0
SPLINE
  5
160
330
1F
100
AcDbEntity
  8
1
  6
Continuous
 62
    30
370
    18
100
AcDbSpline
210
0.0
220
0.0
230
1.0
 70
     8
 71
     3
 72
    53
 73
    49
 74
     0
 42
0.000000001
 43
0.0000000001
 40
0.0
 40
0.0
 40
0.0
 40
0.0
 40
0.0625000000000027
 40
0.0625000000000027
 40
0.1250000000000055
 40
0.1250000000000055
 40
0.1875000000000082
 40
0.1875000000000082
 40
0.2187500000000082
 40
0.2187500000000082
 40
0.2343750000000094
 40
0.2343750000000094
 40
0.2500000000000107
 40
0.2500000000000107
 40
0.3125000000000078
 40
0.3125000000000078
 40
0.3750000000000048
 40
0.3750000000000048
 40
0.4375000000000019
 40
0.4375000000000019
 40
0.4531249999999997
 40
0.4531249999999997
 40
0.4687499999999975
 40
0.4687499999999975
 40
0.4999999999999953
 40
0.4999999999999953
 40
0.5624999999999936
 40
0.5624999999999936
 40
0.6249999999999918
 40
0.6249999999999918
 40
0.6874999999999901
 40
0.6874999999999901
 40
0.7031249999999896
 40
0.7031249999999896
 40
0.718749999999989
 40
0.7499999999999893
 40
0.7499999999999893
 40
0.8124999999999917
 40
0.8124999999999917
 40
0.874999999999994
 40
0.874999999999994
 40
0.9374999999999962
 40
0.9374999999999962
 40
0.9531249999999969
 40
0.9531249999999969
 40
0.9687499999999974
 40
0.9687499999999974
 40
1.0
 40
1.0
 40
1.0
 40
1.0
 10
391.663894835741
 20
557.9167405981447
 30
0.0
 10
391.663894835741
 20
557.6124050627783
 30
0.0
 10
391.675957226483
 20
557.3084797010565
 30
0.0
 10
391.7242332457421
 20
556.7014897847594
 30
0.0
 10
391.760445908722
 20
556.3984251491229
 30
0.0
 10
391.8575025530925
 20
555.7932004443604
 30
0.0
 10
391.9183439433198
 20
555.4910402846493
 30
0.0
 10
392.0288182245648
 20
555.0385157833556
 30
0.0
 10
392.0688492016596
 20
554.8877936277204
 30
0.0
 10
392.1338396467514
 20
554.6618946922929
 30
0.0
 10
392.1563612454556
 20
554.5865243919716
 30
0.0
 10
392.2027472005465
 20
554.4368874057545
 30
0.0
 10
392.2266401525262
 20
554.3625134162179
 30
0.0
 10
392.3495493443077
 20
553.9928311379314
 30
0.0
 10
392.4588791313035
 20
553.7040725926081
 30
0.0
 10
392.6984582421975
 20
553.1398619244034
 30
0.0
 10
392.8287105878958
 20
552.8644117449709
 30
0.0
 10
393.1095037867512
 20
552.3264560873604
 30
0.0
 10
393.260046156792
 20
552.0639515265271
 30
0.0
 10
393.4607464113857
 20
551.7438465794769
 30
0.0
 10
393.5015134542516
 20
551.6802274817832
 30
0.0
 10
393.5843009963469
 20
551.5537938213638
 30
0.0
 10
393.6261442734335
 20
551.4912503223042
 30
0.0
 10
393.7529132863346
 20
551.3056990333375
 30
0.0
 10
393.8391094835714
 20
551.1847201432519
 30
0.0
 10
394.1024889543502
 20
550.8295825972798
 30
0.0
 10
394.2844537148274
 20
550.6032073799583
 30
0.0
 10
394.6600247789912
 20
550.1697129867828
 30
0.0
 10
394.8536340392183
 20
549.9625983696992
 30
0.0
 10
395.251652927706
 20
549.5665764629138
 30
0.0
 10
395.4560644686742
 20
549.377672013936
 30
0.0
 10
395.7179247588911
 20
549.152477882834
 30
0.0
 10
395.7704946612472
 20
549.1080903746863
 30
0.0
 10
395.8758703510412
 20
549.0207086731875
 30
0.0
 10
396.0343585883368
 20
548.8916657268358
 30
0.0
 10
396.194068823139
 20
548.7685550639617
 30
0.0
 10
396.5149926505811
 20
548.5298778321676
 30
0.0
 10
396.7309432012508
 20
548.3808054839334
 30
0.0
 10
397.166266405514
 20
548.1011724308366
 30
0.0
 10
397.3856401327243
 20
547.970615591981
 30
0.0
 10
397.8273200025856
 20
547.726814244078
 30
0.0
 10
398.0496268849369
 20
547.6135723018047
 30
0.0
 10
398.3290754327692
 20
547.4822624275985
 30
0.0
 10
398.3850435117992
 20
547.456513159316
 30
0.0
 10
398.4971301440515
 20
547.4060277126757
 30
0.0
 10
398.5531641149611
 20
547.3813299328937
 30
0.0
 10
398.7210782440616
 20
547.3089018270841
 30
0.0
 10
398.8328368765505
 20
547.2628061258732
 30
0.0
 10
398.9444007851057
 20
547.2188029484544
 30
0.0
  0
SPLINE
  5
161
330
1F
100
AcDbEntity
  8
1
  6
Continuous
 62
    30
370
    13
100
AcDbSpline
210
0.0
220
0.0
230
1.0
 70
     8
 71
     3
 72
    50
 73
    46
 74
     0
 42
0.000000001
 43
0.0000000001
 40
0.0
 40
0.0
 40
0.0
 40
0.0
 40
0.062500000000003
 40
0.125000000000006
 40
0.125000000000006
 40
0.1562500000000067
 40
0.1562500000000067
 40
0.1718750000000062
 40
0.179687500000006
 40
0.179687500000006
 40
0.1875000000000058
 40
0.1875000000000058
 40
0.2500000000000042
 40
0.2500000000000042
 40
0.3125000000000026
 40
0.3125000000000026
 40
0.3750000000000009
 40
0.3750000000000009
 40
0.4062500000000008
 40
0.4062500000000008
 40
0.4218750000000007
 40
0.4218750000000007
 40
0.4375000000000007
 40
0.4375000000000007
 40
0.5000000000000003
 40
0.5000000000000003
 40
0.5625
 40
0.5625
 40
0.6249999999999997
 40
0.6249999999999997
 40
0.6874999999999993
 40
0.6874999999999993
 40
0.7187499999999992
 40
0.7187499999999992
 40
0.7343749999999994
 40
0.7343749999999994
 40
0.7499999999999996
 40
0.7499999999999996
 40
0.8124999999999997
 40
0.8124999999999997
 40
0.8749999999999998
 40
0.8749999999999998
 40
0.9374999999999999
 40
0.9374999999999999
 40
1.0
 40
1.0
 40
1.0
 40
1.0
 10
373.8388948357409
 20
558.8917405981447
 30
0.0
 10
373.8388948357409
 20
558.3729591709446
 30
0.0
 10
373.798833687039
 20
557.3375476828487
 30
0.0
 10
373.6789434175239
 20
556.306492235394
 30
0.0
 10
373.5586634577288
 20
555.5348751581423
 30
0.0
 10
373.5135041398932
 20
555.2779487750666
 30
0.0
 10
373.4380597382369
 20
554.8929854626618
 30
0.0
 10
373.3984106071345
 20
554.7006103958403
 30
0.0
 10
373.3558457486319
 20
554.5083968066259
 30
0.0
 10
373.326818034271
 20
554.3802904911806
 30
0.0
 10
373.3119744444443
 20
554.3162395003438
 30
0.0
 10
373.1757712188854
 20
553.741322175277
 30
0.0
 10
373.0356445402014
 20
553.2388703642596
 30
0.0
 10
372.7186139612534
 20
552.2505355506144
 30
0.0
 10
372.5417069584297
 20
551.7646539634343
 30
0.0
 10
372.1517412211617
 20
550.8091856868831
 30
0.0
 10
371.9386814962316
 20
550.3395994301502
 30
0.0
 10
371.5919667828137
 20
549.6474583626374
 30
0.0
 10
371.4718694304324
 20
549.4187866779853
 30
0.0
 10
371.2848886053176
 20
549.0788650705895
 30
0.0
 10
371.2214222157313
 20
548.9660723345747
 30
0.0
 10
371.092199004349
 20
548.7415214052952
 30
0.0
 10
371.0264238645432
 20
548.6297327768036
 30
0.0
 10
370.6919747506757
 20
548.0737055743402
 30
0.0
 10
370.410570069513
 20
547.6447531413432
 30
0.0
 10
369.8218676660723
 20
546.816687719883
 30
0.0
 10
369.5145651670447
 20
546.4175800906172
 30
0.0
 10
368.8753059044664
 20
545.6479693191158
 30
0.0
 10
368.5433462343478
 20
545.2774693196087
 30
0.0
 10
367.8555793726193
 20
544.5643622724136
 30
0.0
 10
367.4997705212595
 20
544.2217568558552
 30
0.0
 10
366.9485024344985
 20
543.7285754169956
 30
0.0
 10
366.7618178907628
 20
543.5676394610362
 30
0.0
 10
366.4774163756855
 20
543.331427954213
 30
0.0
 10
366.3817847774315
 20
543.2534770039588
 30
0.0
 10
366.1898822897647
 20
543.0999559978195
 30
0.0
 10
366.0935483663401
 20
543.0243303599258
 30
0.0
 10
365.6100119424272
 20
542.6517747707863
 30
0.0
 10
365.2172185653158
 20
542.3715348321297
 30
0.0
 10
364.4207322052576
 20
541.8445329405371
 30
0.0
 10
364.0170371087078
 20
541.5977762170814
 30
0.0
 10
363.1995663198188
 20
541.1362349391488
 30
0.0
 10
362.7857891731363
 20
540.9214537441622
 30
0.0
 10
361.9488218877503
 20
540.5228415312065
 30
0.0
 10
361.5256307069541
 20
540.3390126364113
 30
0.0
 10
361.0980094243526
 20
540.1703497111872
 30
0.0
  0
SPLINE
  5
162
330
1F
100
AcDbEntity
  8
1
  6
Continuous
 62
    30
370
    13
100
AcDbSpline
210
0.0
220
0.0
230
1.0
 70
     8
 71
     3
 72
    58
 73
    54
 74
     0
 42
0.000000001
 43
0.0000000001
 40
0.0
 40
0.0
 40
0.0
 40
0.0
 40
0.0312500000000004
 40
0.0312500000000004
 40
0.0390625000000005
 40
0.0390625000000005
 40
0.0468750000000006
 40
0.0468750000000006
 40
0.0625000000000002
 40
0.0625000000000002
 40
0.1249999999999971
 40
0.1249999999999971
 40
0.1874999999999939
 40
0.1874999999999939
 40
0.2499999999999909
 40
0.2499999999999909
 40
0.2812499999999891
 40
0.2812499999999891
 40
0.289062499999989
 40
0.289062499999989
 40
0.2968749999999888
 40
0.2968749999999888
 40
0.3124999999999885
 40
0.3124999999999885
 40
0.3749999999999877
 40
0.3749999999999877
 40
0.437499999999987
 40
0.437499999999987
 40
0.4999999999999862
 40
0.4999999999999862
 40
0.5156249999999859
 40
0.5234374999999858
 40
0.5234374999999858
 40
0.5312499999999857
 40
0.5312499999999857
 40
0.562499999999987
 40
0.562499999999987
 40
0.6249999999999897
 40
0.6249999999999897
 40
0.6874999999999923
 40
0.6874999999999923
 40
0.7499999999999951
 40
0.7499999999999951
 40
0.7656249999999954
 40
0.7656249999999954
 40
0.7812499999999958
 40
0.8124999999999963
 40
0.8124999999999963
 40
0.8749999999999976
 40
0.8749999999999976
 40
0.9374999999999988
 40
0.9374999999999988
 40
1.0
 40
1.0
 40
1.0
 40
1.0
 10
399.2297802471294
 20
540.1703497111872
 30
0.0
 10
399.0168462961377
 20
540.2543353885027
 30
0.0
 10
398.8041291434879
 20
540.3424318557117
 30
0.0
 10
398.538546260093
 20
540.457866215472
 30
0.0
 10
398.4854453708638
 20
540.4812188722235
 30
0.0
 10
398.379276071418
 20
540.5284605335719
 30
0.0
 10
398.3262019465407
 20
540.5523524128614
 30
0.0
 10
398.1672981839952
 20
540.6247162168299
 30
0.0
 10
398.0616989412404
 20
540.67391510615
 30
0.0
 10
397.5354063468945
 20
540.9247097874409
 30
0.0
 10
397.119818567288
 20
541.1406903269265
 30
0.0
 10
396.3001442225101
 20
541.6040623789447
 30
0.0
 10
395.8960563436015
 20
541.8514513556589
 30
0.0
 10
395.1001440310861
 20
542.3788044019539
 30
0.0
 10
394.7083176952135
 20
542.6587644328417
 30
0.0
 10
394.1304995365238
 20
543.1044155837045
 30
0.0
 10
393.9395488004656
 20
543.2572557597556
 30
0.0
 10
393.7030205029888
 20
543.4538413684774
 30
0.0
 10
393.6558228950234
 20
543.4934353742295
 30
0.0
 10
393.561646244491
 20
543.5731819550517
 30
0.0
 10
393.5146432994741
 20
543.6133552722324
 30
0.0
 10
393.3741774512548
 20
543.7345375418843
 30
0.0
 10
393.2812623126721
 20
543.8162025926453
 30
0.0
 10
392.8203413663255
 20
544.2289139233995
 30
0.0
 10
392.4632862261527
 20
544.5731010407133
 30
0.0
 10
391.7730323737529
 20
545.2898302844517
 30
0.0
 10
391.4398318497292
 20
545.6623705754903
 30
0.0
 10
390.7981516519555
 20
546.4365936201158
 30
0.0
 10
390.4896688520305
 20
546.8382729241326
 30
0.0
 10
390.1203344964358
 20
547.3594202578972
 30
0.0
 10
390.01075622985
 20
547.517195326918
 30
0.0
 10
389.9030400467072
 20
547.6771474146352
 30
0.0
 10
389.8316465516504
 20
547.7842696626469
 30
0.0
 10
389.7961407485747
 20
547.8381017180225
 30
0.0
 10
389.6198781260463
 20
548.1081613441388
 30
0.0
 10
389.483248051482
 20
548.3265715968944
 30
0.0
 10
389.0864042441165
 20
548.9888309424617
 30
0.0
 10
388.8392183260533
 20
549.4396982320347
 30
0.0
 10
388.3795528776412
 20
550.360093437727
 30
0.0
 10
388.1670724969172
 20
550.8296209403796
 30
0.0
 10
387.7773771673235
 20
551.7876129315239
 30
0.0
 10
387.6001594182079
 20
552.2760759154642
 30
0.0
 10
387.4014386009472
 20
552.898891027929
 30
0.0
 10
387.362823232297
 20
553.0241106647335
 30
0.0
 10
387.287956620669
 20
553.2756074957681
 30
0.0
 10
387.1795588554729
 20
553.6532364392004
 30
0.0
 10
387.0827367747798
 20
554.0320037121318
 30
0.0
 10
386.9042526131909
 20
554.7910285047197
 30
0.0
 10
386.8054536631519
 20
555.299030055402
 30
0.0
 10
386.6473618286842
 20
556.3189074496547
 30
0.0
 10
386.5880705915139
 20
556.8307834674235
 30
0.0
 10
386.5088373114386
 20
557.8583757546185
 30
0.0
 10
386.488894835741
 20
558.3740920277749
 30
0.0
 10
386.488894835741
 20
558.8917405981447
 30
0.0
  0
SPLINE
  5
163
330
1F
100
AcDbEntity
  8
1
  6
Continuous
 62
    30
370
    18
100
AcDbSpline
210
0.0
220
0.0
230
1.0
 70
    24
 71
     3
 72
     8
 73
     4
 74
     0
 42
0.000000001
 43
0.0000000001
 40
0.0
 40
0.0
 40
0.0
 40
0.0
 40
1.0
 40
1.0
 40
1.0
 40
1.0
 10
368.163894835741
 20
578.2394861379126
 30
0.0
 10
368.163894835741
 20
578.340614162991
 30
0.0
 10
368.163894835741
 20
578.4417421880692
 30
0.0
 10
368.163894835741
 20
578.5428702131474
 30
0.0
  0
SPLINE
  5
164
330
1F
100
AcDbEntity
  8
1
  6
Continuous
 62
    30
370
    18
100
AcDbSpline
210
0.0
220
0.0
230
1.0
 70
    24
 71
     3
 72
     8
 73
     4
 74
     0
 42
0.000000001
 43
0.0000000001
 40
0.0
 40
0.0
 40
0.0
 40
0.0
 40
1.0
 40
1.0
 40
1.0
 40
1.0
 10
368.163894835741
 20
578.5428702131474
 30
0.0
 10
368.163894835741
 20
578.5966152131473
 30
0.0
 10
368.163894835741
 20
578.6503602131472
 30
0.0
 10
368.163894835741
 20
578.7041052131472
 30
0.0
  0
SPLINE
  5
165
330
1F
100
AcDbEntity
  8
1
  6
Continuous
 62
    30
370
    18
100
AcDbSpline
210
0.0
220
0.0
230
1.0
 70
    24
 71
     3
 72
     8
 73
     4
 74
     0
 42
0.000000001
 43
0.0000000001
 40
0.0
 40
0.0
 40
0.0
 40
0.0
 40
1.0
 40
1.0
 40
1.0
 40
1.0
 10
392.163894835741
 20
586.760667099277
 30
0.0
 10
392.163894835741
 20
586.7605348026692
 30
0.0
 10
392.163894835741
 20
586.7604025060613
 30
0.0
 10
392.163894835741
 20
586.7602702094534
 30
0.0
  0
SPLINE
  5
166
330
1F
100
AcDbEntity
  8
1
  6
Continuous
 62
    30
370
    18
100
AcDbSpline
210
0.0
220
0.0
230
1.0
 70
    24
 71
     3
 72
     8
 73
     4
 74
     0
 42
0.000000001
 43
0.0000000001
 40
0.0
 40
0.0
 40
0.0
 40
0.0
 40
1.0
 40
1.0
 40
1.0
 40
1.0
 10
392.163894835741
 20
586.7592462506332
 30
0.0
 10
392.163894835741
 20
586.7591069019672
 30
0.0
 10
392.163894835741
 20
586.7589675533014
 30
0.0
 10
392.163894835741
 20
586.7588282046355
 30
0.0
  0
SPLINE
  5
167
330
1F
100
AcDbEntity
  8
1
  6
Continuous
 62
    30
370
    18
100
AcDbSpline
210
0.0
220
0.0
230
1.0
 70
     8
 71
     3
 72
    10
 73
     6
 74
     0
 42
0.000000001
 43
0.0000000001
 40
0.0
 40
0.0
 40
0.0
 40
0.0
 40
0.3049954216275519
 40
0.3049954216275519
 40
1.0
 40
1.0
 40
1.0
 40
1.0
 10
361.3229673032786
 20
547.1951644142064
 30
0.0
 10
361.4198384258079
 20
547.2327435158087
 30
0.0
 10
361.516476058694
 20
547.2717434195722
 30
0.0
 10
361.8325409626054
 20
547.4043436407187
 30
0.0
 10
362.0509657094315
 20
547.5039890736919
 30
0.0
 10
362.2680532478578
 20
547.6115168753117
 30
0.0
  0
SPLINE
  5
168
330
1F
100
AcDbEntity
  8
1
  6
Continuous
 62
    30
370
    18
100
AcDbSpline
210
0.0
220
0.0
230
1.0
 70
    24
 71
     3
 72
     8
 73
     4
 74
     0
 42
0.000000001
 43
0.0000000001
 40
0.0
 40
0.0
 40
0.0
 40
0.0
 40
1.0
 40
1.0
 40
1.0
 40
1.0
 10
392.163894835741
 20
586.7577991683336
 30
0.0
 10
392.163894835741
 20
586.7576586913384
 30
0.0
 10
392.163894835741
 20
586.7575182143432
 30
0.0
 10
392.163894835741
 20
586.7573777373481
 30
0.0
  0
SPLINE
  5
169
330
1F
100
AcDbEntity
  8
1
  6
Continuous
 62
    30
370
    18
100
AcDbSpline
210
0.0
220
0.0
230
1.0
 70
    24
 71
     3
 72
     8
 73
     4
 74
     0
 42
0.000000001
 43
0.0000000001
 40
0.0
 40
0.0
 40
0.0
 40
0.0
 40
1.0
 40
1.0
 40
1.0
 40
1.0
 10
392.163894835741
 20
586.7573777373481
 30
0.0
 10
392.163894835741
 20
586.5990017373481
 30
0.0
 10
392.163894835741
 20
586.4406257373481
 30
0.0
 10
392.163894835741
 20
586.2822497373481
 30
0.0
  0
SPLINE
  5
16A
330
1F
100
AcDbEntity
  8
1
  6
Continuous
 62
    30
370
    18
100
AcDbSpline
210
0.0
220
0.0
230
1.0
 70
    24
 71
     3
 72
    12
 73
     8
 74
     0
 42
0.000000001
 43
0.0000000001
 40
0.0
 40
0.0
 40
0.0
 40
0.0
 40
0.1674483762661072
 40
0.1674483762661072
 40
0.8409080793952619
 40
0.8409080793952619
 40
1.0
 40
1.0
 40
1.0
 40
1.0
 10
392.163894835741
 20
586.2518489972765
 30
0.0
 10
392.163894835741
 20
586.2519622461413
 30
0.0
 10
392.163894835741
 20
586.2338164203076
 30
0.0
 10
392.163894835741
 20
586.052208789807
 30
0.0
 10
392.163894835741
 20
585.7311703599908
 30
0.0
 10
392.163894835741
 20
585.1194956871473
 30
0.0
 10
392.163894835741
 20
584.9977470166111
 30
0.0
 10
392.163894835741
 20
584.8711540509022
 30
0.0
  0
SPLINE
  5
16B
330
1F
100
AcDbEntity
  8
1
  6
Continuous
 62
    30
370
    18
100
AcDbSpline
210
0.0
220
0.0
230
1.0
 70
    24
 71
     3
 72
     8
 73
     4
 74
     0
 42
0.000000001
 43
0.0000000001
 40
0.0
 40
0.0
 40
0.0
 40
0.0
 40
1.0
 40
1.0
 40
1.0
 40
1.0
 10
368.163894835741
 20
578.7348108645745
 30
0.0
 10
368.163894835741
 20
578.7606593565312
 30
0.0
 10
368.163894835741
 20
578.886756842297
 30
0.0
 10
368.163894835741
 20
579.1143643260377
 30
0.0
  0
SPLINE
  5
16C
330
1F
100
AcDbEntity
  8
1
  6
Continuous
 62
    30
370
    18
100
AcDbSpline
210
0.0
220
0.0
230
1.0
 70
    24
 71
     3
 72
     8
 73
     4
 74
     0
 42
0.000000001
 43
0.0000000001
 40
0.0
 40
0.0
 40
0.0
 40
0.0
 40
1.0
 40
1.0
 40
1.0
 40
1.0
 10
392.163894835741
 20
584.7940524660178
 30
0.0
 10
392.163894835741
 20
584.7939004517069
 30
0.0
 10
392.163894835741
 20
584.7363326282905
 30
0.0
 10
392.163894835741
 20
584.6211074660192
 30
0.0
  0
SPLINE
  5
16D
330
1F
100
AcDbEntity
  8
1
  6
Continuous
 62
    30
370
    18
100
AcDbSpline
210
0.0
220
0.0
230
1.0
 70
    24
 71
     3
 72
     8
 73
     4
 74
     0
 42
0.000000001
 43
0.0000000001
 40
0.0
 40
0.0
 40
0.0
 40
0.0
 40
1.0
 40
1.0
 40
1.0
 40
1.0
 10
392.163894835741
 20
584.6211074660192
 30
0.0
 10
392.163894835741
 20
584.4787275714923
 30
0.0
 10
392.163894835741
 20
584.2794671339451
 30
0.0
 10
392.163894835741
 20
584.0236384660193
 30
0.0
  0
SPLINE
  5
16E
330
1F
100
AcDbEntity
  8
1
  6
Continuous
 62
    30
370
    18
100
AcDbSpline
210
0.0
220
0.0
230
1.0
 70
    24
 71
     3
 72
    10
 73
     6
 74
     0
 42
0.000000001
 43
0.0000000001
 40
0.0
 40
0.0
 40
0.0
 40
0.0
 40
0.8063319138099326
 40
0.8063319138099326
 40
1.0
 40
1.0
 40
1.0
 40
1.0
 10
368.163894835741
 20
584.0502817186396
 30
0.0
 10
368.163894835741
 20
584.3039510045853
 30
0.0
 10
368.163894835741
 20
584.4973540930866
 30
0.0
 10
368.163894835741
 20
584.6629119871712
 30
0.0
 10
368.163894835741
 20
584.690623082513
 30
0.0
 10
368.163894835741
 20
584.7139867186412
 30
0.0
  0
SPLINE
  5
16F
330
1F
100
AcDbEntity
  8
1
  6
Continuous
 62
    30
370
    18
100
AcDbSpline
210
0.0
220
0.0
230
1.0
 70
    24
 71
     3
 72
    10
 73
     6
 74
     0
 42
0.000000001
 43
0.0000000001
 40
0.0
 40
0.0
 40
0.0
 40
0.0
 40
0.329498767460969
 40
0.329498767460969
 40
1.0
 40
1.0
 40
1.0
 40
1.0
 10
368.163894835741
 20
579.1143643260377
 30
0.0
 10
368.163894835741
 20
579.3433760908409
 30
0.0
 10
368.163894835741
 20
579.7394403262743
 30
0.0
 10
368.163894835741
 20
581.4484503793396
 30
0.0
 10
368.163894835741
 20
582.5943437263415
 30
0.0
 10
368.163894835741
 20
583.7402370733436
 30
0.0
  0
SPLINE
  5
170
330
1F
100
AcDbEntity
  8
1
  6
Continuous
 62
    30
370
    18
100
AcDbSpline
210
0.0
220
0.0
230
1.0
 70
    24
 71
     3
 72
     8
 73
     4
 74
     0
 42
0.000000001
 43
0.0000000001
 40
0.0
 40
0.0
 40
0.0
 40
0.0
 40
1.0
 40
1.0
 40
1.0
 40
1.0
 10
368.163894835741
 20
583.7402370733436
 30
0.0
 10
368.163894835741
 20
583.8333412142568
 30
0.0
 10
368.163894835741
 20
583.9264453551701
 30
0.0
 10
368.163894835741
 20
584.0195494960834
 30
0.0
  0
SPLINE
  5
171
330
1F
100
AcDbEntity
  8
1
  6
Continuous
 62
    30
370
    18
100
AcDbSpline
210
0.0
220
0.0
230
1.0
 70
    24
 71
     3
 72
     8
 73
     4
 74
     0
 42
0.000000001
 43
0.0000000001
 40
0.0
 40
0.0
 40
0.0
 40
0.0
 40
1.0
 40
1.0
 40
1.0
 40
1.0
 10
392.163894835741
 20
583.737421510803
 30
0.0
 10
392.163894835741
 20
581.9047763865062
 30
0.0
 10
392.163894835741
 20
580.0721312622094
 30
0.0
 10
392.163894835741
 20
578.2394861379126
 30
0.0
  0
SPLINE
  5
172
330
1F
100
AcDbEntity
  8
1
  6
Continuous
 62
    30
370
    18
100
AcDbSpline
210
0.0
220
0.0
230
1.0
 70
    24
 71
     3
 72
     8
 73
     4
 74
     0
 42
0.000000001
 43
0.0000000001
 40
0.0
 40
0.0
 40
0.0
 40
0.0
 40
1.0
 40
1.0
 40
1.0
 40
1.0
 10
392.163894835741
 20
584.0136274292979
 30
0.0
 10
392.163894835741
 20
583.9215587897995
 30
0.0
 10
392.163894835741
 20
583.8294901503012
 30
0.0
 10
392.163894835741
 20
583.737421510803
 30
0.0
  0
SPLINE
  5
173
330
1F
100
AcDbEntity
  8
1
  6
Continuous
 62
    30
370
    18
100
AcDbSpline
210
0.0
220
0.0
230
1.0
 70
     8
 71
     3
 72
    10
 73
     6
 74
     0
 42
0.000000001
 43
0.0000000001
 40
0.0
 40
0.0
 40
0.0
 40
0.0
 40
0.6972631458372871
 40
0.6972631458372871
 40
1.0
 40
1.0
 40
1.0
 40
1.0
 10
398.0764876814936
 20
547.6032365882618
 30
0.0
 10
398.2880592992217
 20
547.4988688364132
 30
0.0
 10
398.5008979025656
 20
547.4019736074654
 30
0.0
 10
398.8078370587077
 20
547.2732019549367
 30
0.0
 10
398.900981189424
 20
547.2355584127521
 30
0.0
 10
398.9943424662942
 20
547.1992357687642
 30
0.0
  0
SPLINE
  5
174
330
1F
100
AcDbEntity
  8
1
  6
Continuous
 62
    30
370
    13
100
AcDbSpline
210
0.0
220
0.0
230
1.0
 70
     8
 71
     3
 72
    58
 73
    54
 74
     0
 42
0.000000001
 43
0.0000000001
 40
0.0
 40
0.0
 40
0.0
 40
0.0
 40
0.0312499999999996
 40
0.0312499999999996
 40
0.0390624999999994
 40
0.0390624999999994
 40
0.0468749999999993
 40
0.0468749999999993
 40
0.0624999999999984
 40
0.0624999999999984
 40
0.1249999999999949
 40
0.1249999999999949
 40
0.1874999999999913
 40
0.1874999999999913
 40
0.2499999999999875
 40
0.2499999999999875
 40
0.2812499999999857
 40
0.2812499999999857
 40
0.2890624999999858
 40
0.2890624999999858
 40
0.2968749999999858
 40
0.2968749999999858
 40
0.3124999999999858
 40
0.3124999999999858
 40
0.3749999999999864
 40
0.3749999999999864
 40
0.437499999999987
 40
0.437499999999987
 40
0.4999999999999876
 40
0.4999999999999876
 40
0.5156249999999878
 40
0.5234374999999878
 40
0.5234374999999878
 40
0.5312499999999878
 40
0.5312499999999878
 40
0.5624999999999891
 40
0.5624999999999891
 40
0.6249999999999916
 40
0.6249999999999916
 40
0.687499999999994
 40
0.687499999999994
 40
0.7499999999999964
 40
0.7499999999999964
 40
0.7656249999999967
 40
0.7656249999999967
 40
0.7812499999999969
 40
0.8124999999999973
 40
0.8124999999999973
 40
0.8749999999999982
 40
0.8749999999999982
 40
0.9374999999999991
 40
0.9374999999999991
 40
1.0
 40
1.0
 40
1.0
 40
1.0
 10
771.2240876020951
 20
594.1703497111872
 30
0.0
 10
771.0999845362873
 20
594.2543353885027
 30
0.0
 10
770.977358574828
 20
594.3424318557118
 30
0.0
 10
770.8259322038489
 20
594.457866215472
 30
0.0
 10
770.7957397609727
 20
594.4812188722235
 30
0.0
 10
770.7355408919037
 20
594.5284605335719
 30
0.0
 10
770.7055313254477
 20
594.5523524128614
 30
0.0
 10
770.6159329917792
 20
594.6247162168298
 30
0.0
 10
770.5567244272994
 20
594.67391510615
 30
0.0
 10
770.2632826324227
 20
594.9247097874409
 30
0.0
 10
770.0368431083269
 20
595.1406903269265
 30
0.0
 10
769.6002994056493
 20
595.6040623789447
 30
0.0
 10
769.3901946549292
 20
595.8514513556589
 30
0.0
 10
768.9862747414966
 20
596.3788044019539
 30
0.0
 10
768.7924582991978
 20
596.6587644328417
 30
0.0
 10
768.5141218569607
 20
597.1044155837045
 30
0.0
 10
768.423410003529
 20
597.2572557597556
 30
0.0
 10
768.312640485918
 20
597.4538413684774
 30
0.0
 10
768.2906176502566
 20
597.4934353742295
 30
0.0
 10
768.2468352465507
 20
597.5731819550517
 30
0.0
 10
768.2250646748839
 20
597.6133552722324
 30
0.0
 10
768.160247054642
 20
597.7345375418843
 30
0.0
 10
768.1176958389945
 20
597.8162025926453
 30
0.0
 10
767.9082203419122
 20
598.2289139233995
 30
0.0
 10
767.7511225313731
 20
598.5731010407133
 30
0.0
 10
767.457571843139
 20
599.2898302844517
 30
0.0
 10
767.3211182864791
 20
599.6623705754903
 30
0.0
 10
767.0689334730324
 20
600.4365936201158
 30
0.0
 10
766.9532002546342
 20
600.8382729241326
 30
0.0
 10
766.8218056185252
 20
601.3594202578971
 30
0.0
 10
766.7833843627207
 20
601.517195326918
 30
0.0
 10
766.7464733587939
 20
601.6771474146352
 30
0.0
 10
766.7222034984287
 20
601.7842696626469
 30
0.0
 10
766.7102313936422
 20
601.8381017180225
 30
0.0
 10
766.6512908796052
 20
602.1081613441389
 30
0.0
 10
766.6071893578937
 20
602.3265715968944
 30
0.0
 10
766.4838922113087
 20
602.9888309424617
 30
0.0
 10
766.4136877080641
 20
603.4396982320347
 30
0.0
 10
766.296894368955
 20
604.3600934377271
 30
0.0
 10
766.2503053638537
 20
604.8296209403796
 30
0.0
 10
766.180896781696
 20
605.7876129315239
 30
0.0
 10
766.1580753091554
 20
606.2760759154642
 30
0.0
 10
766.1448458574158
 20
606.898891027929
 30
0.0
 10
766.1429659169683
 20
607.0241106647335
 30
0.0
 10
766.1407573331403
 20
607.2756074957681
 30
0.0
 10
766.1397808853743
 20
607.6532364392004
 30
0.0
 10
766.1457341990472
 20
608.0320037121318
 30
0.0
 10
766.1667233051321
 20
608.7910285047197
 30
0.0
 10
766.1928089238223
 20
609.299030055402
 30
0.0
 10
766.2687637544173
 20
610.3189074496547
 30
0.0
 10
766.3186337996036
 20
610.8307834674237
 30
0.0
 10
766.442296584419
 20
611.8583757546185
 30
0.0
 10
766.5160884855121
 20
612.374092027775
 30
0.0
 10
766.6021794882208
 20
612.8917405981447
 30
0.0
  0
SPLINE
  5
175
330
1F
100
AcDbEntity
  8
1
  6
Continuous
 62
    30
370
    13
100
AcDbSpline
210
0.0
220
0.0
230
1.0
 70
     8
 71
     3
 72
    50
 73
    46
 74
     0
 42
0.000000001
 43
0.0000000001
 40
0.0
 40
0.0
 40
0.0
 40
0.0
 40
0.062500000000003
 40
0.125000000000006
 40
0.125000000000006
 40
0.1562500000000067
 40
0.1562500000000067
 40
0.1718750000000062
 40
0.179687500000006
 40
0.179687500000006
 40
0.1875000000000058
 40
0.1875000000000058
 40
0.2500000000000042
 40
0.2500000000000042
 40
0.3125000000000026
 40
0.3125000000000026
 40
0.3750000000000009
 40
0.3750000000000009
 40
0.4062500000000008
 40
0.4062500000000008
 40
0.4218750000000007
 40
0.4218750000000007
 40
0.4375000000000007
 40
0.4375000000000007
 40
0.5000000000000003
 40
0.5000000000000003
 40
0.5625
 40
0.5625
 40
0.6249999999999997
 40
0.6249999999999997
 40
0.6874999999999993
 40
0.6874999999999993
 40
0.7187499999999992
 40
0.7187499999999992
 40
0.7343749999999994
 40
0.7343749999999994
 40
0.7499999999999996
 40
0.7499999999999996
 40
0.8124999999999997
 40
0.8124999999999997
 40
0.8749999999999998
 40
0.8749999999999998
 40
0.9374999999999999
 40
0.9374999999999999
 40
1.0
 40
1.0
 40
1.0
 40
1.0
 10
856.4936418191897
 20
612.8917405981447
 30
0.0
 10
856.5799212292197
 20
612.3729591709446
 30
0.0
 10
856.7280609118891
 20
611.3375476828487
 30
0.0
 10
856.8282400548335
 20
610.306492235394
 30
0.0
 10
856.8853125460723
 20
609.5348751581423
 30
0.0
 10
856.9013221899125
 20
609.2779487750666
 30
0.0
 10
856.9207660258824
 20
608.8929854626618
 30
0.0
 10
856.9293448656596
 20
608.7006103958403
 30
0.0
 10
856.9361960073835
 20
608.5083968066259
 30
0.0
 10
856.9403777674581
 20
608.3802904911806
 30
0.0
 10
856.9422760045463
 20
608.3162395003438
 30
0.0
 10
856.9575841963364
 20
607.741322175277
 30
0.0
 10
856.9586730354
 20
607.2388703642596
 30
0.0
 10
856.9366981229073
 20
606.2505355506144
 30
0.0
 10
856.9136320846728
 20
605.7646539634343
 30
0.0
 10
856.8436471438554
 20
604.8091856868831
 30
0.0
 10
856.7967277822643
 20
604.3395994301502
 30
0.0
 10
856.7082820494772
 20
603.6474583626374
 30
0.0
 10
856.6757848686302
 20
603.4187866779853
 30
0.0
 10
856.6224558599044
 20
603.0788650705895
 30
0.0
 10
856.6039153797
 20
602.9660723345747
 30
0.0
 10
856.565292745287
 20
602.7415214052952
 30
0.0
 10
856.5452048776455
 20
602.6297327768036
 30
0.0
 10
856.4409308225046
 20
602.0737055743402
 30
0.0
 10
856.3465026773957
 20
601.6447531413432
 30
0.0
 10
856.1365983246143
 20
600.816687719883
 30
0.0
 10
856.02111864885
 20
600.4175800906172
 30
0.0
 10
855.7695693225403
 20
599.6479693191158
 30
0.0
 10
855.6334978986808
 20
599.2774693196087
 30
0.0
 10
855.3407991871702
 20
598.5643622724136
 30
0.0
 10
855.1841713527336
 20
598.2217568558552
 30
0.0
 10
854.9335452659021
 20
597.7285754169956
 30
0.0
 10
854.8473861702524
 20
597.5676394610362
 30
0.0
 10
854.7141611926305
 20
597.331427954213
 30
0.0
 10
854.6690394394575
 20
597.2534770039588
 30
0.0
 10
854.5778449460282
 20
597.0999559978195
 30
0.0
 10
854.5317433879424
 20
597.0243303599258
 30
0.0
 10
854.2987361566055
 20
596.6517747707863
 30
0.0
 10
854.1043441834088
 20
596.3715348321297
 30
0.0
 10
853.6999519399859
 20
595.8445329405371
 30
0.0
 10
853.4899500038603
 20
595.5977762170814
 30
0.0
 10
853.0544222178299
 20
595.1362349391488
 30
0.0
 10
852.8288954791007
 20
594.9214537441622
 30
0.0
 10
852.3621654103622
 20
594.5228415312065
 30
0.0
 10
852.1209617496381
 20
594.3390126364113
 30
0.0
 10
851.8717337053156
 20
594.1703497111872
 30
0.0
  0
SPLINE
  5
176
330
1F
100
AcDbEntity
  8
1
  6
Continuous
 62
    30
370
    13
100
AcDbSpline
210
0.0
220
0.0
230
1.0
 70
     8
 71
     3
 72
    53
 73
    49
 74
     0
 42
0.000000001
 43
0.0000000001
 40
0.0
 40
0.0
 40
0.0
 40
0.0
 40
0.0625000000000022
 40
0.0625000000000022
 40
0.1250000000000044
 40
0.1250000000000044
 40
0.1875000000000067
 40
0.1875000000000067
 40
0.2187500000000064
 40
0.2187500000000064
 40
0.2343750000000076
 40
0.2343750000000076
 40
0.2500000000000088
 40
0.2500000000000088
 40
0.3125000000000057
 40
0.3125000000000057
 40
0.3750000000000026
 40
0.3750000000000026
 40
0.4374999999999995
 40
0.4374999999999995
 40
0.4531249999999972
 40
0.4531249999999972
 40
0.4687499999999949
 40
0.4687499999999949
 40
0.4999999999999926
 40
0.4999999999999926
 40
0.5624999999999899
 40
0.5624999999999899
 40
0.6249999999999871
 40
0.6249999999999871
 40
0.6874999999999843
 40
0.6874999999999843
 40
0.703124999999984
 40
0.703124999999984
 40
0.7187499999999837
 40
0.7499999999999848
 40
0.7499999999999848
 40
0.8124999999999889
 40
0.8124999999999889
 40
0.874999999999993
 40
0.874999999999993
 40
0.9374999999999971
 40
0.9374999999999971
 40
0.9531249999999982
 40
0.9531249999999982
 40
0.9687499999999993
 40
0.9687499999999993
 40
1.0
 40
1.0
 40
1.0
 40
1.0
 10
772.4646661619797
 20
611.9167405981447
 30
0.0
 10
772.3876440149365
 20
611.6124050627783
 30
0.0
 10
772.3217505606456
 20
611.3084797010565
 30
0.0
 10
772.2119200306827
 20
610.7014897847592
 30
0.0
 10
772.1679824609307
 20
610.3984251491229
 30
0.0
 10
772.1022809481294
 20
609.7932004443604
 30
0.0
 10
772.0805146348398
 20
609.4910402846493
 30
0.0
 10
772.0650766050602
 20
609.0385157833556
 30
0.0
 10
772.0628037458738
 20
608.8877936277204
 30
0.0
 10
772.0638226401177
 20
608.6618946922929
 30
0.0
 10
772.0649052121634
 20
608.5865243919716
 30
0.0
 10
772.068537409121
 20
608.4368874057545
 30
0.0
 10
772.0710855018967
 20
608.3625134162179
 30
0.0
 10
772.087430160134
 20
607.9928311379315
 30
0.0
 10
772.1120142057366
 20
607.7040725926082
 30
0.0
 10
772.1831935867258
 20
607.1398619244034
 30
0.0
 10
772.229792232906
 20
606.8644117449709
 30
0.0
 10
772.3445807122037
 20
606.3264560873604
 30
0.0
 10
772.41277184926
 20
606.063951526527
 30
0.0
 10
772.5115593007121
 20
605.7438465794769
 30
0.0
 10
772.5319954232147
 20
605.680227481783
 30
0.0
 10
772.574231061496
 20
605.5537938213638
 30
0.0
 10
772.5959402879097
 20
605.4912503223042
 30
0.0
 10
772.6627677112887
 20
605.3056990333375
 30
0.0
 10
772.7096008941787
 20
605.1847201432519
 30
0.0
 10
772.8566907074189
 20
604.8295825972797
 30
0.0
 10
772.9635239550508
 20
604.6032073799583
 30
0.0
 10
773.193763910859
 20
604.1697129867829
 30
0.0
 10
773.3171742191148
 20
603.9625983696992
 30
0.0
 10
773.5800000902594
 20
603.5665764629138
 30
0.0
 10
773.7194177828553
 20
603.377672013936
 30
0.0
 10
773.9035320414239
 20
603.152477882834
 30
0.0
 10
773.9407636590165
 20
603.1080903746863
 30
0.0
 10
774.0159263629373
 20
603.0207086731875
 30
0.0
 10
774.1297695980777
 20
602.8916657268358
 30
0.0
 10
774.246850246483
 20
602.7685550639617
 30
0.0
 10
774.4851930842543
 20
602.5298778321677
 30
0.0
 10
774.6496572091032
 20
602.3808054839334
 30
0.0
 10
774.9891859189522
 20
602.1011724308366
 30
0.0
 10
775.1642522606343
 20
601.970615591981
 30
0.0
 10
775.5246399271535
 20
601.726814244078
 30
0.0
 10
775.7099623840656
 20
601.6135723018047
 30
0.0
 10
775.9478991178246
 20
601.4822624275985
 30
0.0
 10
775.9958009598272
 20
601.456513159316
 30
0.0
 10
776.0922316549386
 20
601.4060277126757
 30
0.0
 10
776.1406878888802
 20
601.3813299328937
 30
0.0
 10
776.2866379564417
 20
601.3089018270841
 30
0.0
 10
776.384769947329
 20
601.2628061258732
 30
0.0
 10
776.4837166957834
 20
601.2188029484544
 30
0.0
  0
SPLINE
  5
177
330
1F
100
AcDbEntity
  8
1
  6
Continuous
 62
    30
370
    13
100
AcDbSpline
210
0.0
220
0.0
230
1.0
 70
     8
 71
     3
 72
    55
 73
    51
 74
     0
 42
0.000000001
 43
0.0000000001
 40
0.0
 40
0.0
 40
0.0
 40
0.0
 40
0.0625000000000007
 40
0.0625000000000007
 40
0.1250000000000014
 40
0.1250000000000014
 40
0.1875000000000021
 40
0.1875000000000021
 40
0.2500000000000027
 40
0.2500000000000027
 40
0.2812500000000024
 40
0.2812500000000024
 40
0.2968750000000022
 40
0.2968750000000022
 40
0.312500000000002
 40
0.374999999999994
 40
0.374999999999994
 40
0.4374999999999861
 40
0.4374999999999861
 40
0.4999999999999781
 40
0.4999999999999781
 40
0.5156249999999775
 40
0.5156249999999775
 40
0.5312499999999768
 40
0.5624999999999754
 40
0.5624999999999754
 40
0.5781249999999745
 40
0.5781249999999745
 40
0.5937499999999735
 40
0.5937499999999735
 40
0.6249999999999735
 40
0.6249999999999735
 40
0.6874999999999734
 40
0.6874999999999734
 40
0.7499999999999732
 40
0.7499999999999732
 40
0.7656249999999752
 40
0.7656249999999752
 40
0.7812499999999772
 40
0.7812499999999772
 40
0.8124999999999839
 40
0.8124999999999839
 40
0.8281249999999859
 40
0.8281249999999859
 40
0.843749999999988
 40
0.8749999999999893
 40
0.8749999999999893
 40
0.9374999999999947
 40
0.9374999999999947
 40
1.0
 40
1.0
 40
1.0
 40
1.0
 10
846.6121046116273
 20
601.2188029484547
 30
0.0
 10
846.8099973769338
 20
601.3068089779372
 30
0.0
 10
847.0032922290613
 20
601.4025836979457
 30
0.0
 10
847.3805464567657
 20
601.6105050781838
 30
0.0
 10
847.5645066527892
 20
601.7226496880901
 30
0.0
 10
847.922839252693
 20
601.9643738023296
 30
0.0
 10
848.097212904648
 20
602.0939502898808
 30
0.0
 10
848.4359760008612
 20
602.3719068110221
 30
0.0
 10
848.6003673894793
 20
602.520282245209
 30
0.0
 10
848.8390259306076
 20
602.7582874028998
 30
0.0
 10
848.9172556867627
 20
602.8401998010048
 30
0.0
 10
849.0325425384494
 20
602.9671421726979
 30
0.0
 10
849.0706633597197
 20
603.0101774436781
 30
0.0
 10
849.1459228368516
 20
603.097313217077
 30
0.0
 10
849.3317291775372
 20
603.317936198198
 30
0.0
 10
849.5058072487811
 20
603.552585103901
 30
0.0
 10
849.7689119376405
 20
603.9469115957992
 30
0.0
 10
849.892756811758
 20
604.1535152703693
 30
0.0
 10
850.1242998414968
 20
604.5869311167262
 30
0.0
 10
850.2320024035455
 20
604.8137373373497
 30
0.0
 10
850.3558203223703
 20
605.1110314021296
 30
0.0
 10
850.3800533929011
 20
605.1712134080682
 30
0.0
 10
850.4272544364711
 20
605.2925750023838
 30
0.0
 10
850.4962165811764
 20
605.4762487567835
 30
0.0
 10
850.5596231098554
 20
605.6648691523169
 30
0.0
 10
850.6192544908466
 20
605.856875062052
 30
0.0
 10
850.6385021830946
 20
605.9214414841767
 30
0.0
 10
850.6757236808985
 20
606.0517204345499
 30
0.0
 10
850.6936525975693
 20
606.1172773548025
 30
0.0
 10
850.745358720037
 20
606.3150484664021
 30
0.0
 10
850.7770750615266
 20
606.448428081311
 30
0.0
 10
850.8639900020557
 20
606.8531734730637
 30
0.0
 10
850.910971119385
 20
607.1291378739929
 30
0.0
 10
850.9827747980628
 20
607.6935715913214
 30
0.0
 10
851.007599837292
 20
607.9820395196248
 30
0.0
 10
851.0242869553942
 20
608.3507555620421
 30
0.0
 10
851.0269056759074
 20
608.424906054524
 30
0.0
 10
851.0306870186438
 20
608.5740325868389
 30
0.0
 10
851.0318494218081
 20
608.6490823003478
 30
0.0
 10
851.0331200109629
 20
608.8747532787954
 30
0.0
 10
851.0310214097
 20
609.0259710013121
 30
0.0
 10
851.0234624979144
 20
609.2539506496892
 30
0.0
 10
851.0202033429564
 20
609.3302053630165
 30
0.0
 10
851.0122353177865
 20
609.4826842205939
 30
0.0
 10
850.9981134216562
 20
609.7113563136533
 30
0.0
 10
850.9775710460613
 20
609.9398909447953
 30
0.0
 10
850.9281061235446
 20
610.3967774885153
 30
0.0
 10
850.8839728828914
 20
610.7011256587095
 30
0.0
 10
850.7739129896357
 20
611.3093199246777
 30
0.0
 10
850.7079847089126
 20
611.6131660130189
 30
0.0
 10
850.631155145431
 20
611.9167405981447
 30
0.0
  0
SPLINE
  5
178
330
1F
100
AcDbEntity
  8
1
  6
Continuous
 62
    30
370
    13
100
AcDbSpline
210
0.0
220
0.0
230
1.0
 70
     8
 71
     3
 72
    14
 73
    10
 74
     0
 42
0.000000001
 43
0.0000000001
 40
0.0
 40
0.0
 40
0.0
 40
0.0
 40
0.25
 40
0.25
 40
0.5
 40
0.5
 40
0.75
 40
0.75
 40
1.0
 40
1.0
 40
1.0
 40
1.0
 10
776.4837166957834
 20
601.2188029484544
 30
0.0
 10
776.8072533141425
 20
601.0749211186671
 30
0.0
 10
777.1372564073109
 20
600.9534093509907
 30
0.0
 10
777.8111344885008
 20
600.7499008035808
 30
0.0
 10
778.1550040627699
 20
600.6679133031821
 30
0.0
 10
778.8571602929001
 20
600.5392875711068
 30
0.0
 10
779.2154433600522
 20
600.4926555726782
 30
0.0
 10
779.9467259438048
 20
600.4313799640928
 30
0.0
 10
780.3197230517902
 20
600.4167405981447
 30
0.0
 10
780.7001490150371
 20
600.4167405981447
 30
0.0
  0
SPLINE
  5
179
330
1F
100
AcDbEntity
  8
1
  6
Continuous
 62
    30
370
    13
100
AcDbSpline
210
0.0
220
0.0
230
1.0
 70
     8
 71
     3
 72
    14
 73
    10
 74
     0
 42
0.000000001
 43
0.0000000001
 40
0.0
 40
0.0
 40
0.0
 40
0.0
 40
0.25
 40
0.25
 40
0.5
 40
0.5
 40
0.75
 40
0.75
 40
1.0
 40
1.0
 40
1.0
 40
1.0
 10
842.3956722923734
 20
600.4167405981447
 30
0.0
 10
842.7760982556204
 20
600.4167405981447
 30
0.0
 10
843.1490953636057
 20
600.4313799640928
 30
0.0
 10
843.8803779473584
 20
600.4926555726782
 30
0.0
 10
844.2386610145105
 20
600.5392875711068
 30
0.0
 10
844.9408172446407
 20
600.6679133031821
 30
0.0
 10
845.2846868189098
 20
600.7499008035808
 30
0.0
 10
845.9585649000996
 20
600.9534093509907
 30
0.0
 10
846.2885679932682
 20
601.0749211186674
 30
0.0
 10
846.6121046116273
 20
601.2188029484547
 30
0.0
  0
SPLINE
  5
17A
330
1F
100
AcDbEntity
  8
1
  6
Continuous
 62
    30
370
    13
100
AcDbSpline
210
0.0
220
0.0
230
1.0
 70
     8
 71
     3
 72
    14
 73
    10
 74
     0
 42
0.000000001
 43
0.0000000001
 40
0.0
 40
0.0
 40
0.0
 40
0.0
 40
0.25
 40
0.25
 40
0.5
 40
0.5
 40
0.75
 40
0.75
 40
1.0
 40
1.0
 40
1.0
 40
1.0
 10
776.0359776028941
 20
592.9498200476719
 30
0.0
 10
775.5864647970964
 20
592.9498200476719
 30
0.0
 10
775.1500135581041
 20
592.9732912971388
 30
0.0
 10
774.3019070923505
 20
593.0695246035502
 30
0.0
 10
773.8902546230456
 20
593.1422807628416
 30
0.0
 10
773.0903212187417
 20
593.3404105420556
 30
0.0
 10
772.7020441031223
 20
593.4657739419825
 30
0.0
 10
771.9472385727161
 20
593.7736647862083
 30
0.0
 10
771.5807157863383
 20
593.9561751156444
 30
0.0
 10
771.2240876020951
 20
594.1703497111872
 30
0.0
  0
SPLINE
  5
17B
330
1F
100
AcDbEntity
  8
1
  6
Continuous
 62
    30
370
    13
100
AcDbSpline
210
0.0
220
0.0
230
1.0
 70
     8
 71
     3
 72
    14
 73
    10
 74
     0
 42
0.000000001
 43
0.0000000001
 40
0.0
 40
0.0
 40
0.0
 40
0.0
 40
0.25
 40
0.25
 40
0.5
 40
0.5
 40
0.75
 40
0.75
 40
1.0
 40
1.0
 40
1.0
 40
1.0
 10
851.8717337053156
 20
594.1703497111872
 30
0.0
 10
851.5151055210724
 20
593.9561751156446
 30
0.0
 10
851.1485827346945
 20
593.7736647862083
 30
0.0
 10
850.3937772042883
 20
593.4657739419824
 30
0.0
 10
850.005500088669
 20
593.3404105420556
 30
0.0
 10
849.205566684365
 20
593.1422807628416
 30
0.0
 10
848.7939142150601
 20
593.0695246035502
 30
0.0
 10
847.9458077493065
 20
592.9732912971388
 30
0.0
 10
847.5093565103142
 20
592.9498200476719
 30
0.0
 10
847.0598437045164
 20
592.9498200476719
 30
0.0
  0
SPLINE
  5
17C
330
1F
100
AcDbEntity
  8
1
  6
Continuous
 62
    30
370
    18
100
AcDbSpline
210
0.0
220
0.0
230
1.0
 70
     8
 71
     3
 72
     8
 73
     4
 74
     0
 42
0.000000001
 43
0.0000000001
 40
0.0
 40
0.0
 40
0.0
 40
0.0
 40
1.0
 40
1.0
 40
1.0
 40
1.0
 10
800.0401756330587
 20
637.9292594835747
 30
0.0
 10
799.9783731515196
 20
637.8016101785079
 30
0.0
 10
799.9358397929612
 20
637.6612668721295
 30
0.0
 10
799.9126506488493
 20
637.5082627966705
 30
0.0
  0
SPLINE
  5
17D
330
1F
100
AcDbEntity
  8
1
  6
Continuous
 62
    30
370
    18
100
AcDbSpline
210
0.0
220
0.0
230
1.0
 70
    24
 71
     3
 72
     8
 73
     4
 74
     0
 42
0.000000001
 43
0.0000000001
 40
0.0
 40
0.0
 40
0.0
 40
0.0
 40
1.0
 40
1.0
 40
1.0
 40
1.0
 10
799.9126506488493
 20
637.5082627966705
 30
0.0
 10
799.9074139926784
 20
637.505945279429
 30
0.0
 10
799.9021773365075
 20
637.5036277621876
 30
0.0
 10
799.8969406803366
 20
637.5013102449464
 30
0.0
  0
SPLINE
  5
17E
330
1F
100
AcDbEntity
  8
1
  6
Continuous
 62
    30
370
    18
100
AcDbSpline
210
0.0
220
0.0
230
1.0
 70
    24
 71
     3
 72
     8
 73
     4
 74
     0
 42
0.000000001
 43
0.0000000001
 40
0.0
 40
0.0
 40
0.0
 40
0.0
 40
1.0
 40
1.0
 40
1.0
 40
1.0
 10
799.8969406803366
 20
637.5013102449464
 30
0.0
 10
799.8213642139152
 20
637.6720826397302
 30
0.0
 10
799.7457877474939
 20
637.8428550345141
 30
0.0
 10
799.6702112810725
 20
638.0136274292979
 30
0.0
  0
SPLINE
  5
17F
330
1F
100
AcDbEntity
  8
1
  6
Continuous
 62
    30
370
    18
100
AcDbSpline
210
0.0
220
0.0
230
1.0
 70
    24
 71
     3
 72
     8
 73
     4
 74
     0
 42
0.000000001
 43
0.0000000001
 40
0.0
 40
0.0
 40
0.0
 40
0.0
 40
1.0
 40
1.0
 40
1.0
 40
1.0
 10
799.6702112810725
 20
638.0136274292979
 30
0.0
 10
799.4621732131909
 20
637.9215587897995
 30
0.0
 10
799.2541351453092
 20
637.8294901503012
 30
0.0
 10
799.0460970774276
 20
637.737421510803
 30
0.0
  0
SPLINE
  5
180
330
1F
100
AcDbEntity
  8
1
  6
Continuous
 62
    30
370
    18
100
AcDbSpline
210
0.0
220
0.0
230
1.0
 70
    24
 71
     3
 72
     8
 73
     4
 74
     0
 42
0.000000001
 43
0.0000000001
 40
0.0
 40
0.0
 40
0.0
 40
0.0
 40
1.0
 40
1.0
 40
1.0
 40
1.0
 10
799.0460970774276
 20
637.737421510803
 30
0.0
 10
799.3800466509965
 20
636.9828298883597
 30
0.0
 10
799.7139962245654
 20
636.2282382659164
 30
0.0
 10
800.0479457981344
 20
635.4736466434731
 30
0.0
  0
SPLINE
  5
181
330
1F
100
AcDbEntity
  8
1
  6
Continuous
 62
    30
370
    18
100
AcDbSpline
210
0.0
220
0.0
230
1.0
 70
    24
 71
     3
 72
     8
 73
     4
 74
     0
 42
0.000000001
 43
0.0000000001
 40
0.0
 40
0.0
 40
0.0
 40
0.0
 40
1.0
 40
1.0
 40
1.0
 40
1.0
 10
823.0478763711932
 20
635.4732882355047
 30
0.0
 10
823.3813153598321
 20
636.2289378481177
 30
0.0
 10
823.7147543484712
 20
636.9845874607306
 30
0.0
 10
824.0481933371103
 20
637.7402370733436
 30
0.0
  0
SPLINE
  5
182
330
1F
100
AcDbEntity
  8
1
  6
Continuous
 62
    30
370
    18
100
AcDbSpline
210
0.0
220
0.0
230
1.0
 70
    24
 71
     3
 72
     8
 73
     4
 74
     0
 42
0.000000001
 43
0.0000000001
 40
0.0
 40
0.0
 40
0.0
 40
0.0
 40
1.0
 40
1.0
 40
1.0
 40
1.0
 10
824.0481933371103
 20
637.7402370733436
 30
0.0
 10
823.837197891434
 20
637.8333412142568
 30
0.0
 10
823.6262024457576
 20
637.9264453551701
 30
0.0
 10
823.4152070000813
 20
638.0195494960834
 30
0.0
  0
SPLINE
  5
183
330
1F
100
AcDbEntity
  8
1
  6
Continuous
 62
    30
370
    18
100
AcDbSpline
210
0.0
220
0.0
230
1.0
 70
    24
 71
     3
 72
     8
 73
     4
 74
     0
 42
0.000000001
 43
0.0000000001
 40
0.0
 40
0.0
 40
0.0
 40
0.0
 40
1.0
 40
1.0
 40
1.0
 40
1.0
 10
823.4152070000813
 20
638.0195494960834
 30
0.0
 10
823.3451859855983
 20
637.8608657360206
 30
0.0
 10
823.2751649711154
 20
637.7021819759578
 30
0.0
 10
823.2051439566325
 20
637.543498215895
 30
0.0
  0
SPLINE
  5
184
330
1F
100
AcDbEntity
  8
1
  6
Continuous
 62
    30
370
    18
100
AcDbSpline
210
0.0
220
0.0
230
1.0
 70
    24
 71
     3
 72
     8
 73
     4
 74
     0
 42
0.000000001
 43
0.0000000001
 40
0.0
 40
0.0
 40
0.0
 40
0.0
 40
1.0
 40
1.0
 40
1.0
 40
1.0
 10
823.2051439566325
 20
637.543498215895
 30
0.0
 10
823.1999047920672
 20
637.5458100568658
 30
0.0
 10
823.1946656275019
 20
637.5481218978366
 30
0.0
 10
823.1894264629366
 20
637.5504337388073
 30
0.0
  0
SPLINE
  5
185
330
1F
100
AcDbEntity
  8
1
  6
Continuous
 62
    30
370
    18
100
AcDbSpline
210
0.0
220
0.0
230
1.0
 70
     8
 71
     3
 72
     8
 73
     4
 74
     0
 42
0.000000001
 43
0.0000000001
 40
0.0
 40
0.0
 40
0.0
 40
0.0
 40
1.0
 40
1.0
 40
1.0
 40
1.0
 10
823.1894264629366
 20
637.5504337388073
 30
0.0
 10
823.1592762212065
 20
637.6657587081642
 30
0.0
 10
823.120324000287
 20
637.7733934821986
 30
0.0
 10
823.0725769584526
 20
637.8733542832103
 30
0.0
  0
SPLINE
  5
186
330
1F
100
AcDbEntity
  8
1
  6
Continuous
 62
    30
370
    18
100
AcDbSpline
210
0.0
220
0.0
230
1.0
 70
     8
 71
     3
 72
    76
 73
    72
 74
     0
 42
0.000000001
 43
0.0000000001
 40
0.0
 40
0.0
 40
0.0
 40
0.0
 40
0.0312499999999944
 40
0.0312499999999944
 40
0.0624999999999888
 40
0.0624999999999888
 40
0.0937499999999831
 40
0.0937499999999831
 40
0.1015624999999821
 40
0.1015624999999821
 40
0.109374999999981
 40
0.1249999999999789
 40
0.1249999999999789
 40
0.1328124999999778
 40
0.1328124999999778
 40
0.1406249999999767
 40
0.1562499999999745
 40
0.1562499999999745
 40
0.1874999999999716
 40
0.1874999999999716
 40
0.2187499999999686
 40
0.2187499999999686
 40
0.2499999999999657
 40
0.2499999999999657
 40
0.2578124999999655
 40
0.2578124999999655
 40
0.2656249999999653
 40
0.2656249999999653
 40
0.281249999999965
 40
0.281249999999965
 40
0.3124999999999654
 40
0.3124999999999654
 40
0.3437499999999657
 40
0.3437499999999657
 40
0.3749999999999661
 40
0.3749999999999661
 40
0.4374999999999669
 40
0.4374999999999669
 40
0.4687499999999673
 40
0.4687499999999673
 40
0.4765624999999677
 40
0.4765624999999677
 40
0.4843749999999682
 40
0.4843749999999682
 40
0.4999999999999692
 40
0.4999999999999692
 40
0.562499999999973
 40
0.562499999999973
 40
0.6249999999999768
 40
0.6249999999999768
 40
0.6874999999999805
 40
0.6874999999999805
 40
0.7499999999999841
 40
0.7499999999999841
 40
0.7812499999999861
 40
0.7812499999999861
 40
0.7968749999999871
 40
0.7968749999999871
 40
0.8124999999999881
 40
0.8124999999999881
 40
0.874999999999992
 40
0.874999999999992
 40
0.937499999999996
 40
0.937499999999996
 40
0.968749999999998
 40
0.968749999999998
 40
0.9843749999999988
 40
0.9921874999999994
 40
0.9960937499999997
 40
0.9960937499999997
 40
1.0
 40
1.0
 40
1.0
 40
1.0
 10
798.119104294364
 20
612.5321252135293
 30
0.0
 10
798.1486958295721
 20
612.2451292718399
 30
0.0
 10
798.187137996207
 20
611.9623299976942
 30
0.0
 10
798.2806996360063
 20
611.4045545755032
 30
0.0
 10
798.3358213950489
 20
611.1295797776834
 30
0.0
 10
798.4620146330476
 20
610.5870419099218
 30
0.0
 10
798.5330875602276
 20
610.3194797017157
 30
0.0
 10
798.6315892906474
 20
609.9894786285043
 30
0.0
 10
798.6517764553266
 20
609.9236909085332
 30
0.0
 10
798.6930987942708
 20
609.7926000640648
 30
0.0
 10
798.7563513788323
 20
609.5971750485865
 30
0.0
 10
798.823328701639
 20
609.4052959848748
 30
0.0
 10
798.8926927069487
 20
609.2156781322278
 30
0.0
 10
798.916228646219
 20
609.1528072393924
 30
0.0
 10
798.9639324457427
 20
609.0281882719023
 30
0.0
 10
799.0364754592055
 20
608.842831671886
 30
0.0
 10
799.1118859142257
 20
608.6620271222371
 30
0.0
 10
799.2663104792605
 20
608.3061080763687
 30
0.0
 10
799.3740571928008
 20
608.0764018091152
 30
0.0
 10
799.5982011960447
 20
607.6305088862432
 30
0.0
 10
799.7146009974701
 20
607.4143266851372
 30
0.0
 10
799.9553372111649
 20
606.994252238044
 30
0.0
 10
800.0796752423637
 20
606.7903628519736
 30
0.0
 10
800.2397129376583
 20
606.5425867743672
 30
0.0
 10
800.2719515712942
 20
606.4933864153312
 30
0.0
 10
800.3368836211321
 20
606.395682598992
 30
0.0
 10
800.3695931579083
 20
606.3471556087339
 30
0.0
 10
800.4682857681104
 20
606.202759253241
 30
0.0
 10
800.5346561956703
 20
606.1083285835689
 30
0.0
 10
800.7354018443993
 20
605.8302122308003
 30
0.0
 10
800.8714083672085
 20
605.6516913072361
 30
0.0
 10
801.1473714672492
 20
605.3070062534791
 30
0.0
 10
801.2873289633388
 20
605.1408454700146
 30
0.0
 10
801.5708816445515
 20
604.8197760453323
 30
0.0
 10
801.7144774419326
 20
604.6648696256265
 30
0.0
 10
802.1503497699571
 20
604.2157122853146
 30
0.0
 10
802.4476930055267
 20
603.9369606998418
 30
0.0
 10
802.9027764978235
 20
603.54602955972
 30
0.0
 10
803.055987478996
 20
603.4202692910973
 30
0.0
 10
803.2493167039697
 20
603.2684658422762
 30
0.0
 10
803.2880733927864
 20
603.2383752297534
 30
0.0
 10
803.3657667207557
 20
603.1787277848622
 30
0.0
 10
803.4046986726011
 20
603.1491748965196
 30
0.0
 10
803.5215642561438
 20
603.0614537047272
 30
0.0
 10
803.5996328761977
 20
603.0041721938114
 30
0.0
 10
803.990746610026
 20
602.7235474639367
 30
0.0
 10
804.306096657777
 20
602.5174855800699
 30
0.0
 10
804.9413116030039
 20
602.137957388407
 30
0.0
 10
805.2611782205669
 20
601.9645095349737
 30
0.0
 10
805.9051720841477
 20
601.6473341940463
 30
0.0
 10
806.2293002728671
 20
601.503617085753
 30
0.0
 10
806.8816680810288
 20
601.2439574795874
 30
0.0
 10
807.2099081967056
 20
601.1280209362696
 30
0.0
 10
807.7053034341227
 20
600.974010061942
 30
0.0
 10
807.8709416426428
 20
600.925993695782
 30
0.0
 10
808.1201578304753
 20
600.8588727733339
 30
0.0
 10
808.2033901814685
 20
600.83730848353
 30
0.0
 10
808.3699076481984
 20
600.7958542512924
 30
0.0
 10
808.453191748577
 20
600.7759636461154
 30
0.0
 10
808.8697420020806
 20
600.6806431087288
 30
0.0
 10
809.2033970969084
 20
600.617589607239
 30
0.0
 10
809.8716161385735
 20
600.5169571075262
 30
0.0
 10
810.2061799257094
 20
600.4793802337974
 30
0.0
 10
810.7087743243758
 20
600.441798151227
 30
0.0
 10
810.8764306749447
 20
600.4324049992207
 30
0.0
 10
811.1281119956541
 20
600.423008087706
 30
0.0
 10
811.2540018670912
 20
600.4194831657803
 30
0.0
 10
811.40096171581
 20
600.4174260624793
 30
0.0
 10
811.4639636833601
 20
600.4169852657922
 30
0.0
 10
811.5059692839701
 20
600.4167894112435
 30
0.0
 10
811.5269983880099
 20
600.4167405981447
 30
0.0
 10
811.5479106537052
 20
600.4167405981447
 30
0.0
  0
SPLINE
  5
187
330
1F
100
AcDbEntity
  8
1
  6
Continuous
 62
    30
370
    13
100
AcDbSpline
210
0.0
220
0.0
230
1.0
 70
     8
 71
     3
 72
    77
 73
    73
 74
     0
 42
0.000000001
 43
0.0000000001
 40
0.0
 40
0.0
 40
0.0
 40
0.0
 40
0.0009765624999998
 40
0.0009765624999998
 40
0.0019531249999997
 40
0.0019531249999997
 40
0.0039062499999997
 40
0.0078124999999998
 40
0.0156249999999998
 40
0.0312500000000001
 40
0.0625000000000003
 40
0.0625000000000003
 40
0.1250000000000008
 40
0.1250000000000008
 40
0.1875000000000013
 40
0.1875000000000013
 40
0.2031250000000013
 40
0.2031250000000013
 40
0.2187500000000014
 40
0.2187500000000014
 40
0.2500000000000011
 40
0.2500000000000011
 40
0.3125000000000003
 40
0.3125000000000003
 40
0.3749999999999997
 40
0.3749999999999997
 40
0.4374999999999989
 40
0.4374999999999989
 40
0.4999999999999982
 40
0.4999999999999982
 40
0.5156249999999979
 40
0.5156249999999979
 40
0.5312499999999976
 40
0.5312499999999976
 40
0.5624999999999969
 40
0.5624999999999969
 40
0.6249999999999958
 40
0.6249999999999958
 40
0.6562499999999952
 40
0.6562499999999952
 40
0.6874999999999947
 40
0.6874999999999947
 40
0.7187499999999942
 40
0.7187499999999942
 40
0.7343749999999938
 40
0.7343749999999938
 40
0.7421874999999942
 40
0.7421874999999942
 40
0.7499999999999944
 40
0.7499999999999944
 40
0.7812499999999951
 40
0.7812499999999951
 40
0.8124999999999958
 40
0.8124999999999958
 40
0.8437499999999966
 40
0.8437499999999966
 40
0.859374999999997
 40
0.867187499999998
 40
0.867187499999998
 40
0.8749999999999989
 40
0.8749999999999989
 40
0.8906249999999997
 40
0.8906249999999997
 40
0.8984374999999993
 40
0.8984374999999993
 40
0.9062499999999991
 40
0.9062499999999991
 40
0.9374999999999993
 40
0.9374999999999993
 40
0.9687499999999997
 40
0.9687499999999997
 40
1.0
 40
1.0
 40
1.0
 40
1.0
 10
811.5479106537053
 20
600.4167405981447
 30
0.0
 10
811.5404232409061
 20
600.4167405981447
 30
0.0
 10
811.5329358289268
 20
600.416743432014
 30
0.0
 10
811.517961006608
 20
600.4167547674999
 30
0.0
 10
811.5103981075534
 20
600.4167633540071
 30
0.0
 10
811.4878120634054
 20
600.4167976368423
 30
0.0
 10
811.4426420308318
 20
600.4169005820621
 30
0.0
 10
811.3372596543464
 20
600.41738138458
 30
0.0
 10
811.1265521783524
 20
600.4193049514322
 30
0.0
 10
810.7053648801391
 20
600.4269973246235
 30
0.0
 10
810.3447326576642
 20
600.4401764904408
 30
0.0
 10
809.6239712775539
 20
600.4753330231003
 30
0.0
 10
809.1441338148788
 20
600.5104886367437
 30
0.0
 10
808.1857571079067
 20
600.6046342016998
 30
0.0
 10
807.7072179007721
 20
600.6636223332355
 30
0.0
 10
807.1098414040378
 20
600.7527753896987
 30
0.0
 10
806.9904060273866
 20
600.7713780551322
 30
0.0
 10
806.7516149598671
 20
600.8101454075485
 30
0.0
 10
806.6322388580527
 20
600.8303142453105
 30
0.0
 10
806.2747360478625
 20
600.8931015201849
 30
0.0
 10
806.0370761288054
 20
600.9380242725384
 30
0.0
 10
805.3261414258799
 20
601.0821343491342
 30
0.0
 10
804.8549081550615
 20
601.1906458329491
 30
0.0
 10
803.9180699853548
 20
601.4337259269082
 30
0.0
 10
803.4524641795956
 20
601.5682892963598
 30
0.0
 10
802.5271856618416
 20
601.865273418511
 30
0.0
 10
802.0675113531578
 20
602.0276851832011
 30
0.0
 10
801.1545606044868
 20
602.3829982508308
 30
0.0
 10
800.7012813493533
 20
602.5758838341504
 30
0.0
 10
800.1391112678378
 20
602.838434645503
 30
0.0
 10
800.026899383316
 20
602.8920206605746
 30
0.0
 10
799.8029337205521
 20
603.0014207196921
 30
0.0
 10
799.6911019215679
 20
603.0572756289546
 30
0.0
 10
799.3571949256147
 20
603.2278538693163
 30
0.0
 10
799.1365491983955
 20
603.3456575855187
 30
0.0
 10
798.4807830894468
 20
603.7119900657959
 30
0.0
 10
798.0518050477209
 20
603.9733761604338
 30
0.0
 10
797.4222465566578
 20
604.3948283929564
 30
0.0
 10
797.2147183031343
 20
604.5402223922545
 30
0.0
 10
796.8046789853963
 20
604.8416574915426
 30
0.0
 10
796.6021670469871
 20
604.997696602647
 30
0.0
 10
796.2026198272306
 20
605.3214543727275
 30
0.0
 10
796.0055832430584
 20
605.4891700622504
 30
0.0
 10
795.7145738945319
 20
605.7504880901807
 30
0.0
 10
795.6183294588473
 20
605.8392206461787
 30
0.0
 10
795.4751674237184
 20
605.9749091732539
 30
0.0
 10
795.4276136388503
 20
606.0206039635615
 30
0.0
 10
795.3331351579357
 20
606.1126737773266
 30
0.0
 10
795.2862053354443
 20
606.1590525520578
 30
0.0
 10
795.0531320946084
 20
606.3926993234379
 30
0.0
 10
794.8717082060388
 20
606.5852166057483
 30
0.0
 10
794.5197887474563
 20
606.9824519544511
 30
0.0
 10
794.3492906347003
 20
607.187167019667
 30
0.0
 10
794.0203234838623
 20
607.6100809580848
 30
0.0
 10
793.8618504824852
 20
607.8282751437922
 30
0.0
 10
793.63424351236
 20
608.1669401798346
 30
0.0
 10
793.5229701858143
 20
608.3391214401692
 30
0.0
 10
793.4157452485097
 20
608.5158715506977
 30
0.0
 10
793.3451939143487
 20
608.6347580426716
 30
0.0
 10
793.3103695984555
 20
608.6947531639424
 30
0.0
 10
793.2074406196473
 20
608.8762087246974
 30
0.0
 10
793.1410618923405
 20
608.9988116013636
 30
0.0
 10
793.0450230670219
 20
609.1852926283866
 30
0.0
 10
793.0135751562817
 20
609.2479309390797
 30
0.0
 10
792.9520046946002
 20
609.3738491685499
 30
0.0
 10
792.9219019077511
 20
609.437085802376
 30
0.0
 10
792.7748407569804
 20
609.7546741320517
 30
0.0
 10
792.6682255550439
 20
610.0132348513557
 30
0.0
 10
792.4783329768271
 20
610.5398845443556
 30
0.0
 10
792.3950516684047
 20
610.8079717901587
 30
0.0
 10
792.2535398358319
 20
611.3544116187247
 30
0.0
 10
792.1953031585423
 20
611.6327614896746
 30
0.0
 10
792.1507459124344
 20
611.9167405981447
 30
0.0
  0
SPLINE
  5
188
330
1F
100
AcDbEntity
  8
1
  6
Continuous
 62
    30
370
    18
100
AcDbSpline
210
0.0
220
0.0
230
1.0
 70
     8
 71
     3
 72
    76
 73
    72
 74
     0
 42
0.000000001
 43
0.0000000001
 40
0.0
 40
0.0
 40
0.0
 40
0.0
 40
0.0039062500000002
 40
0.0039062500000002
 40
0.0078125000000006
 40
0.015625000000001
 40
0.0312500000000016
 40
0.0312500000000016
 40
0.0625000000000024
 40
0.0625000000000024
 40
0.1250000000000043
 40
0.1250000000000043
 40
0.1875000000000061
 40
0.1875000000000061
 40
0.2031250000000066
 40
0.2031250000000066
 40
0.2187500000000071
 40
0.2187500000000071
 40
0.2500000000000085
 40
0.2500000000000085
 40
0.3125000000000117
 40
0.3125000000000117
 40
0.3750000000000148
 40
0.3750000000000148
 40
0.4375000000000178
 40
0.4375000000000178
 40
0.5000000000000209
 40
0.5000000000000209
 40
0.5156250000000218
 40
0.5156250000000218
 40
0.5234375000000224
 40
0.5234375000000224
 40
0.531250000000023
 40
0.531250000000023
 40
0.5625000000000241
 40
0.5625000000000241
 40
0.6250000000000262
 40
0.6250000000000262
 40
0.6562500000000271
 40
0.6562500000000271
 40
0.6875000000000282
 40
0.6875000000000282
 40
0.7187500000000291
 40
0.7187500000000291
 40
0.7343750000000291
 40
0.7343750000000291
 40
0.7421875000000291
 40
0.7421875000000291
 40
0.7500000000000291
 40
0.7500000000000291
 40
0.7812500000000269
 40
0.7812500000000269
 40
0.8125000000000246
 40
0.8125000000000246
 40
0.8437500000000224
 40
0.8437500000000224
 40
0.8593750000000207
 40
0.8671875000000198
 40
0.8671875000000198
 40
0.8750000000000189
 40
0.8750000000000189
 40
0.8906250000000171
 40
0.8984375000000161
 40
0.8984375000000161
 40
0.9062500000000152
 40
0.9062500000000152
 40
0.9375000000000101
 40
0.9375000000000101
 40
0.9687500000000051
 40
0.9687500000000051
 40
1.0
 40
1.0
 40
1.0
 40
1.0
 10
811.5479106537053
 20
600.4167405981447
 30
0.0
 10
811.5688229194006
 20
600.4167405981447
 30
0.0
 10
811.5898520234405
 20
600.4167894112435
 30
0.0
 10
811.6318576240504
 20
600.4169852657922
 30
0.0
 10
811.6948595916007
 20
600.4174260624793
 30
0.0
 10
811.8418194403192
 20
600.4194831657803
 30
0.0
 10
811.9677093117565
 20
600.423008087706
 30
0.0
 10
812.2193906324659
 20
600.4324049992207
 30
0.0
 10
812.3870469830348
 20
600.441798151227
 30
0.0
 10
812.8896413817013
 20
600.4793802337974
 30
0.0
 10
813.2242051688372
 20
600.5169571075262
 30
0.0
 10
813.8924242105022
 20
600.617589607239
 30
0.0
 10
814.22607930533
 20
600.6806431087288
 30
0.0
 10
814.6426295588336
 20
600.7759636461154
 30
0.0
 10
814.7259136592122
 20
600.7958542512924
 30
0.0
 10
814.892431125942
 20
600.83730848353
 30
0.0
 10
814.9756634769353
 20
600.8588727733339
 30
0.0
 10
815.2248796647679
 20
600.925993695782
 30
0.0
 10
815.3905178732879
 20
600.974010061942
 30
0.0
 10
815.885913110705
 20
601.1280209362698
 30
0.0
 10
816.2141532263818
 20
601.2439574795874
 30
0.0
 10
816.8665210345434
 20
601.503617085753
 30
0.0
 10
817.190649223263
 20
601.6473341940462
 30
0.0
 10
817.8346430868438
 20
601.9645095349736
 30
0.0
 10
818.1545097044067
 20
602.137957388407
 30
0.0
 10
818.7897246496337
 20
602.5174855800699
 30
0.0
 10
819.1050746973846
 20
602.7235474639367
 30
0.0
 10
819.496188431213
 20
603.0041721938114
 30
0.0
 10
819.5742570512668
 20
603.0614537047272
 30
0.0
 10
819.6911226348095
 20
603.1491748965196
 30
0.0
 10
819.7300545866549
 20
603.1787277848622
 30
0.0
 10
819.8077479146243
 20
603.2383752297535
 30
0.0
 10
819.8465046034408
 20
603.2684658422763
 30
0.0
 10
820.0398338284145
 20
603.4202692910972
 30
0.0
 10
820.193044809587
 20
603.54602955972
 30
0.0
 10
820.648128301884
 20
603.9369606998418
 30
0.0
 10
820.9454715374536
 20
604.2157122853147
 30
0.0
 10
821.3813438654781
 20
604.6648696256265
 30
0.0
 10
821.5249396628592
 20
604.8197760453322
 30
0.0
 10
821.8084923440719
 20
605.1408454700146
 30
0.0
 10
821.9484498401615
 20
605.3070062534791
 30
0.0
 10
822.2244129402022
 20
605.651691307236
 30
0.0
 10
822.3604194630113
 20
605.8302122308003
 30
0.0
 10
822.5611651117404
 20
606.1083285835689
 30
0.0
 10
822.6275355393003
 20
606.202759253241
 30
0.0
 10
822.7262281495024
 20
606.3471556087339
 30
0.0
 10
822.7589376862786
 20
606.395682598992
 30
0.0
 10
822.8238697361165
 20
606.4933864153312
 30
0.0
 10
822.8561083697523
 20
606.5425867743672
 30
0.0
 10
823.0161460650469
 20
606.7903628519736
 30
0.0
 10
823.1404840962457
 20
606.994252238044
 30
0.0
 10
823.3812203099405
 20
607.4143266851373
 30
0.0
 10
823.4976201113659
 20
607.6305088862432
 30
0.0
 10
823.7217641146099
 20
608.0764018091152
 30
0.0
 10
823.8295108281501
 20
608.3061080763687
 30
0.0
 10
823.983935393185
 20
608.6620271222371
 30
0.0
 10
824.0593458482052
 20
608.842831671886
 30
0.0
 10
824.1318888616679
 20
609.0281882719023
 30
0.0
 10
824.1795926611917
 20
609.1528072393924
 30
0.0
 10
824.203128600462
 20
609.2156781322278
 30
0.0
 10
824.2724926057717
 20
609.4052959848748
 30
0.0
 10
824.3394699285784
 20
609.5971750485865
 30
0.0
 10
824.4027225131399
 20
609.7926000640648
 30
0.0
 10
824.4440448520841
 20
609.9236909085332
 30
0.0
 10
824.4642320167633
 20
609.9894786285043
 30
0.0
 10
824.5627337471831
 20
610.3194797017156
 30
0.0
 10
824.633806674363
 20
610.5870419099218
 30
0.0
 10
824.7599999123618
 20
611.1295797776834
 30
0.0
 10
824.8151216714044
 20
611.4045545755032
 30
0.0
 10
824.9086833112037
 20
611.9623299976942
 30
0.0
 10
824.9471254778385
 20
612.2451292718399
 30
0.0
 10
824.9767170130467
 20
612.5321252135293
 30
0.0
  0
SPLINE
  5
189
330
1F
100
AcDbEntity
  8
1
  6
Continuous
 62
    30
370
    13
100
AcDbSpline
210
0.0
220
0.0
230
1.0
 70
     8
 71
     3
 72
    77
 73
    73
 74
     0
 42
0.000000001
 43
0.0000000001
 40
0.0
 40
0.0
 40
0.0
 40
0.0
 40
0.0312500000000012
 40
0.0312500000000012
 40
0.0625000000000024
 40
0.0625000000000024
 40
0.0937500000000036
 40
0.0937500000000036
 40
0.1015625000000035
 40
0.1015625000000035
 40
0.1093750000000034
 40
0.1093750000000034
 40
0.1250000000000046
 40
0.1250000000000046
 40
0.1328125000000058
 40
0.1328125000000058
 40
0.140625000000007
 40
0.1562500000000078
 40
0.1562500000000078
 40
0.1875000000000092
 40
0.1875000000000092
 40
0.2187500000000106
 40
0.2187500000000106
 40
0.250000000000012
 40
0.250000000000012
 40
0.2578125000000123
 40
0.2578125000000123
 40
0.2656250000000125
 40
0.2656250000000125
 40
0.2812500000000121
 40
0.2812500000000121
 40
0.3125000000000113
 40
0.3125000000000113
 40
0.3437500000000104
 40
0.3437500000000104
 40
0.3750000000000097
 40
0.3750000000000097
 40
0.4375000000000088
 40
0.4375000000000088
 40
0.4687500000000084
 40
0.4687500000000084
 40
0.4843750000000082
 40
0.4843750000000082
 40
0.500000000000008
 40
0.500000000000008
 40
0.562500000000007
 40
0.562500000000007
 40
0.6250000000000061
 40
0.6250000000000061
 40
0.6875000000000051
 40
0.6875000000000051
 40
0.7500000000000042
 40
0.7500000000000042
 40
0.7812500000000036
 40
0.7812500000000036
 40
0.7968750000000033
 40
0.7968750000000033
 40
0.8125000000000031
 40
0.8125000000000031
 40
0.8750000000000023
 40
0.8750000000000023
 40
0.9375000000000014
 40
0.9375000000000014
 40
0.9687500000000009
 40
0.9843750000000006
 40
0.9921875000000003
 40
0.9960937500000003
 40
0.9980468750000002
 40
0.9980468750000002
 40
0.9990234375000002
 40
0.9990234375000002
 40
1.0
 40
1.0
 40
1.0
 40
1.0
 10
830.9450753949761
 20
611.9167405981447
 30
0.0
 10
830.9005181488684
 20
611.6327614896746
 30
0.0
 10
830.8422814715788
 20
611.3544116187247
 30
0.0
 10
830.7007696390059
 20
610.8079717901587
 30
0.0
 10
830.6174883305836
 20
610.5398845443556
 30
0.0
 10
830.4275957523668
 20
610.0132348513557
 30
0.0
 10
830.3209805504302
 20
609.7546741320517
 30
0.0
 10
830.1739193996594
 20
609.437085802376
 30
0.0
 10
830.1438166128105
 20
609.3738491685499
 30
0.0
 10
830.082246151129
 20
609.2479309390797
 30
0.0
 10
830.0507982403886
 20
609.1852926283866
 30
0.0
 10
829.95475941507
 20
608.9988116013635
 30
0.0
 10
829.8883806877634
 20
608.8762087246974
 30
0.0
 10
829.7854517089552
 20
608.6947531639424
 30
0.0
 10
829.750627393062
 20
608.6347580426716
 30
0.0
 10
829.6800760589009
 20
608.5158715506977
 30
0.0
 10
829.5728511215964
 20
608.3391214401692
 30
0.0
 10
829.4615777950507
 20
608.1669401798346
 30
0.0
 10
829.2339708249253
 20
607.8282751437922
 30
0.0
 10
829.0754978235483
 20
607.6100809580848
 30
0.0
 10
828.7465306727103
 20
607.187167019667
 30
0.0
 10
828.5760325599543
 20
606.9824519544511
 30
0.0
 10
828.2241131013718
 20
606.5852166057483
 30
0.0
 10
828.0426892128023
 20
606.3926993234379
 30
0.0
 10
827.8096159719664
 20
606.1590525520578
 30
0.0
 10
827.762686149475
 20
606.1126737773267
 30
0.0
 10
827.6682076685603
 20
606.0206039635615
 30
0.0
 10
827.6206538836923
 20
605.9749091732539
 30
0.0
 10
827.4774918485634
 20
605.8392206461787
 30
0.0
 10
827.3812474128787
 20
605.7504880901807
 30
0.0
 10
827.0902380643522
 20
605.4891700622504
 30
0.0
 10
826.8932014801801
 20
605.3214543727275
 30
0.0
 10
826.4936542604235
 20
604.997696602647
 30
0.0
 10
826.2911423220143
 20
604.8416574915426
 30
0.0
 10
825.8811030042763
 20
604.5402223922545
 30
0.0
 10
825.6735747507528
 20
604.3948283929564
 30
0.0
 10
825.0440162596897
 20
603.9733761604338
 30
0.0
 10
824.6150382179638
 20
603.7119900657959
 30
0.0
 10
823.959272109015
 20
603.3456575855187
 30
0.0
 10
823.7386263817958
 20
603.2278538693162
 30
0.0
 10
823.4047193858428
 20
603.0572756289546
 30
0.0
 10
823.2928875868586
 20
603.0014207196921
 30
0.0
 10
823.0689219240946
 20
602.8920206605745
 30
0.0
 10
822.9567100395727
 20
602.838434645503
 30
0.0
 10
822.3945399580573
 20
602.5758838341504
 30
0.0
 10
821.9412607029237
 20
602.3829982508307
 30
0.0
 10
821.0283099542528
 20
602.0276851832011
 30
0.0
 10
820.568635645569
 20
601.865273418511
 30
0.0
 10
819.643357127815
 20
601.5682892963597
 30
0.0
 10
819.1777513220558
 20
601.4337259269082
 30
0.0
 10
818.2409131523491
 20
601.1906458329491
 30
0.0
 10
817.7696798815307
 20
601.0821343491342
 30
0.0
 10
817.0587451786051
 20
600.9380242725384
 30
0.0
 10
816.8210852595481
 20
600.8931015201849
 30
0.0
 10
816.4635824493579
 20
600.8303142453105
 30
0.0
 10
816.3442063475435
 20
600.8101454075485
 30
0.0
 10
816.105415280024
 20
600.7713780551322
 30
0.0
 10
815.9859799033728
 20
600.7527753896987
 30
0.0
 10
815.3886034066385
 20
600.6636223332355
 30
0.0
 10
814.9100641995038
 20
600.6046342016998
 30
0.0
 10
813.9516874925317
 20
600.5104886367437
 30
0.0
 10
813.4718500298567
 20
600.4753330231003
 30
0.0
 10
812.7510886497464
 20
600.4401764904408
 30
0.0
 10
812.3904564272715
 20
600.4269973246235
 30
0.0
 10
811.9692691290581
 20
600.4193049514322
 30
0.0
 10
811.7585616530641
 20
600.41738138458
 30
0.0
 10
811.6531792765787
 20
600.4169005820622
 30
0.0
 10
811.6080092440052
 20
600.4167976368423
 30
0.0
 10
811.5854231998571
 20
600.4167633540072
 30
0.0
 10
811.5778603008026
 20
600.4167547674997
 30
0.0
 10
811.5628854784837
 20
600.4167434320143
 30
0.0
 10
811.5553980665045
 20
600.4167405981447
 30
0.0
 10
811.5479106537053
 20
600.4167405981447
 30
0.0
  0
SPLINE
  5
18A
330
1F
100
AcDbEntity
  8
1
  6
Continuous
 62
    30
370
    18
100
AcDbSpline
210
0.0
220
0.0
230
1.0
 70
     8
 71
     3
 72
    15
 73
    11
 74
     0
 42
0.000000001
 43
0.0000000001
 40
0.0
 40
0.0
 40
0.0
 40
0.0
 40
0.1221245170882485
 40
0.2557025107592642
 40
0.3915787724072464
 40
0.5295348538130332
 40
0.6691040929832158
 40
0.8098182445737405
 40
0.9556955457069409
 40
1.0
 40
1.0
 40
1.0
 40
1.0
 10
360.5652882451854
 20
188.0808758301863
 30
0.0
 10
360.2808006293532
 20
187.9157194433333
 30
0.0
 10
359.6837408535786
 20
187.5643209381549
 30
0.0
 10
358.7631698083057
 20
187.0078876298177
 30
0.0
 10
357.8041010836808
 20
186.4100446365397
 30
0.0
 10
356.8327418375742
 20
185.7834506459181
 30
0.0
 10
355.8555259457034
 20
185.1289505973301
 30
0.0
 10
354.8692076170646
 20
184.4408937467187
 30
0.0
 10
354.1089821421317
 20
183.895243812848
 30
0.0
 10
353.6792331532957
 20
183.5719098569743
 30
0.0
 10
353.5793906695745
 20
183.4961854091239
 30
0.0
  0
SPLINE
  5
18B
330
1F
100
AcDbEntity
  8
1
  6
Continuous
 62
    30
370
    18
100
AcDbSpline
210
0.0
220
0.0
230
1.0
 70
     8
 71
     3
 72
    15
 73
    11
 74
     0
 42
0.000000001
 43
0.0000000001
 40
0.0
 40
0.0
 40
0.0
 40
0.0
 40
0.122124517088276
 40
0.255702510759193
 40
0.3915787724072901
 40
0.52953485381301
 40
0.6691040929831754
 40
0.80981824457371
 40
0.9556955457068774
 40
1.0
 40
1.0
 40
1.0
 40
1.0
 10
399.7625014262968
 20
107.6010563479374
 30
0.0
 10
400.0469890421291
 20
107.7662127347904
 30
0.0
 10
400.6440488179036
 20
108.1176112399687
 30
0.0
 10
401.5646198631765
 20
108.674044548306
 30
0.0
 10
402.5236885878013
 20
109.2718875415839
 30
0.0
 10
403.495047833908
 20
109.8984815322056
 30
0.0
 10
404.4722637257786
 20
110.5529815807934
 30
0.0
 10
405.4585820544173
 20
111.2410384314048
 30
0.0
 10
406.2188075293503
 20
111.7866883652754
 30
0.0
 10
406.6485565181864
 20
112.1100223211493
 30
0.0
 10
406.7483990019077
 20
112.1857467689998
 30
0.0
  0
SPLINE
  5
18C
330
1F
100
AcDbEntity
  8
1
  6
Continuous
 62
    30
370
    18
100
AcDbSpline
210
0.0
220
0.0
230
1.0
 70
     8
 71
     3
 72
    15
 73
    11
 74
     0
 42
0.000000001
 43
0.0000000001
 40
0.0
 40
0.0
 40
0.0
 40
0.0
 40
0.0463661759388374
 40
0.1973808115620742
 40
0.3452290840422798
 40
0.4901498706992357
 40
0.6290948438823154
 40
0.7661843295566355
 40
0.9014850081553456
 40
1.0
 40
1.0
 40
1.0
 40
1.0
 10
406.7482940670183
 20
183.496044991076
 30
0.0
 10
406.6438211513996
 20
183.5753138590025
 30
0.0
 10
406.1978245914289
 20
183.910896510649
 30
0.0
 10
405.4043198328133
 20
184.4796541805643
 30
0.0
 10
404.3764929919149
 20
185.1947106001821
 30
0.0
 10
403.3668368025532
 20
185.86763722364
 30
0.0
 10
402.3772133384967
 20
186.5027313650531
 30
0.0
 10
401.4090004419986
 20
187.10307900885
 30
0.0
 10
400.5373779900051
 20
187.6278061426787
 30
0.0
 10
399.9922575669568
 20
187.9470112059438
 30
0.0
 10
399.7631172461499
 20
188.0796168216592
 30
0.0
  0
SPLINE
  5
18D
330
1F
100
AcDbEntity
  8
1
  6
Continuous
 62
    30
370
    18
100
AcDbSpline
210
0.0
220
0.0
230
1.0
 70
     8
 71
     3
 72
    15
 73
    11
 74
     0
 42
0.000000001
 43
0.0000000001
 40
0.0
 40
0.0
 40
0.0
 40
0.0
 40
0.0463661759387995
 40
0.1973808115620427
 40
0.3452290840422467
 40
0.4901498706991822
 40
0.6290948438822451
 40
0.7661843295565558
 40
0.9014850081552995
 40
1.0
 40
1.0
 40
1.0
 40
1.0
 10
353.5794956044638
 20
112.1858871870477
 30
0.0
 10
353.6839685200824
 20
112.1066183191213
 30
0.0
 10
354.1299650800531
 20
111.7710356674749
 30
0.0
 10
354.9234698386686
 20
111.2022779975596
 30
0.0
 10
355.9512966795668
 20
110.4872215779418
 30
0.0
 10
356.9609528689285
 20
109.8142949544839
 30
0.0
 10
357.950576332985
 20
109.1792008130709
 30
0.0
 10
358.918789229483
 20
108.578853169274
 30
0.0
 10
359.7904116814767
 20
108.0541260354452
 30
0.0
 10
360.3355321045252
 20
107.73492097218
 30
0.0
 10
360.5646724253321
 20
107.6023153564645
 30
0.0
  0
SPLINE
  5
18E
330
1F
100
AcDbEntity
  8
1
  6
Continuous
 62
    30
370
    18
100
AcDbSpline
210
0.0
220
0.0
230
1.0
 70
     8
 71
     3
 72
    22
 73
    18
 74
     0
 42
0.000000001
 43
0.0000000001
 40
0.0
 40
0.0
 40
0.0
 40
0.0
 40
0.0472543550898186
 40
0.1162729430022262
 40
0.1833676719997288
 40
0.2500349323499428
 40
0.3165384891063557
 40
0.3828619072601773
 40
0.4490527286456725
 40
0.515247539119705
 40
0.5816194299271656
 40
0.6485594523447974
 40
0.7167482076128069
 40
0.7854841028596422
 40
0.8591931307204882
 40
0.9407193738292758
 40
1.0
 40
1.0
 40
1.0
 40
1.0
 10
399.7648209971842
 20
188.086562518742
 30
0.0
 10
399.5496414005561
 20
188.2129213703721
 30
0.0
 10
399.0219562986054
 20
188.5187673474198
 30
0.0
 10
398.1959879390707
 20
188.9798600208408
 30
0.0
 10
397.2930365641018
 20
189.4677202648051
 30
0.0
 10
396.4142808237876
 20
189.9255638724539
 30
0.0
 10
395.5543163953611
 20
190.3574468665651
 30
0.0
 10
394.7142560268558
 20
190.7631614387569
 30
0.0
 10
393.8956614073297
 20
191.1422722357919
 30
0.0
 10
393.0991199187383
 20
191.4945628554324
 30
0.0
 10
392.3237851375499
 20
191.8201627977063
 30
0.0
 10
391.5657874032229
 20
192.1199251098484
 30
0.0
 10
390.8261820766051
 20
192.3919465062309
 30
0.0
 10
390.0883755694164
 20
192.6404131280927
 30
0.0
 10
389.3251082941362
 20
192.8686735903101
 30
0.0
 10
388.6067974772569
 20
193.0510330888735
 30
0.0
 10
388.1231861732824
 20
193.1443864423468
 30
0.0
 10
387.9187152347199
 20
193.179328074452
 30
0.0
  0
SPLINE
  5
18F
330
1F
100
AcDbEntity
  8
1
  6
Continuous
 62
    30
370
    18
100
AcDbSpline
210
0.0
220
0.0
230
1.0
 70
     8
 71
     3
 72
    23
 73
    19
 74
     0
 42
0.000000001
 43
0.0000000001
 40
0.0
 40
0.0
 40
0.0
 40
0.0
 40
0.0088027205893596
 40
0.0705629458621998
 40
0.1467519223228662
 40
0.2202211758190855
 40
0.2892878817331186
 40
0.36166134196594
 40
0.4305999928776046
 40
0.4978923323323426
 40
0.5643558571629362
 40
0.6304458200315521
 40
0.6964196455688845
 40
0.7624091886606532
 40
0.8284479156549133
 40
0.8946588264557267
 40
0.9621352250397582
 40
1.0
 40
1.0
 40
1.0
 40
1.0
 10
387.945747782556
 20
102.5071612229156
 30
0.0
 10
387.9766732604504
 20
102.5117892845559
 30
0.0
 10
388.2239002956202
 20
102.5500722978591
 30
0.0
 10
388.716449162789
 20
102.659144097915
 30
0.0
 10
389.4279193662578
 20
102.8406403189949
 30
0.0
 10
390.1734723274031
 20
103.0684761004792
 30
0.0
 10
390.9292414419824
 20
103.3261008763279
 30
0.0
 10
391.6943594452639
 20
103.6112812589194
 30
0.0
 10
392.4809321699359
 20
103.9262090331978
 30
0.0
 10
393.2710914951702
 20
104.2617746218787
 30
0.0
 10
394.0741363618615
 20
104.6205187306753
 30
0.0
 10
394.8937587399443
 20
105.0035617144633
 30
0.0
 10
395.731084410218
 20
105.4113371840848
 30
0.0
 10
396.5855017558119
 20
105.8437957697372
 30
0.0
 10
397.4558994063104
 20
106.3006259363015
 30
0.0
 10
398.344866689424
 20
106.7844066538323
 30
0.0
 10
399.1160267640491
 20
107.2168532532913
 30
0.0
 10
399.5930655430482
 20
107.4946279624627
 30
0.0
 10
399.764998383328
 20
107.5958498663819
 30
0.0
  0
SPLINE
  5
190
330
1F
100
AcDbEntity
  8
1
  6
Continuous
 62
    30
370
    18
100
AcDbSpline
210
0.0
220
0.0
230
1.0
 70
     8
 71
     3
 72
    23
 73
    19
 74
     0
 42
0.000000001
 43
0.0000000001
 40
0.0
 40
0.0
 40
0.0
 40
0.0
 40
0.008802720589398
 40
0.0705629458622377
 40
0.1467519223229597
 40
0.2202211758192472
 40
0.2892878817332213
 40
0.3616613419661108
 40
0.430599992877766
 40
0.4978923323324693
 40
0.5643558571631134
 40
0.6304458200317001
 40
0.6964196455690095
 40
0.7624091886607584
 40
0.828447915655057
 40
0.8946588264558535
 40
0.9621352250399056
 40
1.0
 40
1.0
 40
1.0
 40
1.0
 10
372.3820418889262
 20
193.174770955208
 30
0.0
 10
372.3511164110316
 20
193.1701428935677
 30
0.0
 10
372.1038893758617
 20
193.1318598802644
 30
0.0
 10
371.6113405086925
 20
193.0227880802085
 30
0.0
 10
370.8998703052235
 20
192.8412918591285
 30
0.0
 10
370.1543173440779
 20
192.6134560776441
 30
0.0
 10
369.3985482294982
 20
192.3558313017952
 30
0.0
 10
368.6334302262167
 20
192.0706509192036
 30
0.0
 10
367.8468575015445
 20
191.7557231449251
 30
0.0
 10
367.0566981763101
 20
191.4201575562442
 30
0.0
 10
366.2536533096189
 20
191.0614134474475
 30
0.0
 10
365.434030931536
 20
190.6783704636595
 30
0.0
 10
364.5967052612625
 20
190.270594994038
 30
0.0
 10
363.7422879156687
 20
189.8381364083856
 30
0.0
 10
362.8718902651702
 20
189.3813062418213
 30
0.0
 10
361.9829229820564
 20
188.8975255242904
 30
0.0
 10
361.2117629074319
 20
188.4650789248317
 30
0.0
 10
360.7347241284334
 20
188.1873042156606
 30
0.0
 10
360.5627912881542
 20
188.0860823117418
 30
0.0
  0
SPLINE
  5
191
330
1F
100
AcDbEntity
  8
1
  6
Continuous
 62
    30
370
    18
100
AcDbSpline
210
0.0
220
0.0
230
1.0
 70
     8
 71
     3
 72
    22
 73
    18
 74
     0
 42
0.000000001
 43
0.0000000001
 40
0.0
 40
0.0
 40
0.0
 40
0.0
 40
0.047254355089771
 40
0.1162729430021597
 40
0.1833676719996849
 40
0.2500349323498995
 40
0.3165384891062952
 40
0.3828619072601344
 40
0.4490527286456413
 40
0.5152475391196722
 40
0.581619429927183
 40
0.6485594523447862
 40
0.7167482076128228
 40
0.7854841028596699
 40
0.8591931307204603
 40
0.940719373829239
 40
1.0
 40
1.0
 40
1.0
 40
1.0
 10
360.5629686742978
 20
107.5953696593817
 30
0.0
 10
360.7781482709257
 20
107.4690108077517
 30
0.0
 10
361.3058333728761
 20
107.1631648307042
 30
0.0
 10
362.1318017324106
 20
106.7020721572833
 30
0.0
 10
363.0347531073795
 20
106.214211913319
 30
0.0
 10
363.9135088476938
 20
105.7563683056701
 30
0.0
 10
364.7734732761202
 20
105.324485311559
 30
0.0
 10
365.6135336446256
 20
104.9187707393671
 30
0.0
 10
366.4321282641519
 20
104.539659942332
 30
0.0
 10
367.2286697527435
 20
104.1873693226914
 30
0.0
 10
368.0040045339319
 20
103.8617693804175
 30
0.0
 10
368.7620022682592
 20
103.5620070682752
 30
0.0
 10
369.501607594877
 20
103.2899856718928
 30
0.0
 10
370.2394141020656
 20
103.041519050031
 30
0.0
 10
371.0026813773457
 20
102.8132585878137
 30
0.0
 10
371.7209921942248
 20
102.6308990892503
 30
0.0
 10
372.2046034981994
 20
102.5375457357769
 30
0.0
 10
372.4090744367621
 20
102.5026041036717
 30
0.0
  0
SPLINE
  5
192
330
1F
100
AcDbEntity
  8
1
  6
Continuous
 62
    30
370
    13
100
AcDbSpline
210
0.0
220
0.0
230
1.0
 70
     8
 71
     3
 72
    14
 73
    10
 74
     0
 42
0.000000001
 43
0.0000000001
 40
0.0
 40
0.0
 40
0.0
 40
0.0
 40
0.25
 40
0.25
 40
0.5
 40
0.5
 40
0.75
 40
0.75
 40
1.0
 40
1.0
 40
1.0
 40
1.0
 10
403.1638948357411
 20
178.68872772773
 30
0.0
 10
402.8286008518725
 20
179.0691536909769
 30
0.0
 10
402.4886661265014
 20
179.4421507989623
 30
0.0
 10
401.8001778435017
 20
180.173433382715
 30
0.0
 10
401.4516210722455
 20
180.531716449867
 30
0.0
 10
400.7468298155741
 20
181.2338726799972
 30
0.0
 10
400.3905905592072
 20
181.5777422542663
 30
0.0
 10
399.67177576949
 20
182.2516203354562
 30
0.0
 10
399.3091930624538
 20
182.5816234286247
 30
0.0
 10
398.9444007851058
 20
182.9051600469838
 30
0.0
  0
SPLINE
  5
193
330
1F
100
AcDbEntity
  8
1
  6
Continuous
 62
    30
370
    13
100
AcDbSpline
210
0.0
220
0.0
230
1.0
 70
     8
 71
     3
 72
    14
 73
    10
 74
     0
 42
0.000000001
 43
0.0000000001
 40
0.0
 40
0.0
 40
0.0
 40
0.0
 40
0.25
 40
0.25
 40
0.5
 40
0.5
 40
0.75
 40
0.75
 40
1.0
 40
1.0
 40
1.0
 40
1.0
 10
398.9444007851058
 20
112.7767721311399
 30
0.0
 10
399.3091930624538
 20
113.100308749499
 30
0.0
 10
399.6717757694901
 20
113.4303118426675
 30
0.0
 10
400.3905905592072
 20
114.1041899238574
 30
0.0
 10
400.7468298155741
 20
114.4480594981264
 30
0.0
 10
401.4516210722455
 20
115.1502157282566
 30
0.0
 10
401.8001778435018
 20
115.5084987954087
 30
0.0
 10
402.4886661265014
 20
116.2397813791614
 30
0.0
 10
402.8286008518725
 20
116.6127784871468
 30
0.0
 10
403.1638948357411
 20
116.9932044503937
 30
0.0
  0
SPLINE
  5
194
330
1F
100
AcDbEntity
  8
1
  6
Continuous
 62
    30
370
    13
100
AcDbSpline
210
0.0
220
0.0
230
1.0
 70
     8
 71
     3
 72
    55
 73
    51
 74
     0
 42
0.000000001
 43
0.0000000001
 40
0.0
 40
0.0
 40
0.0
 40
0.0
 40
0.0624999999999945
 40
0.0624999999999945
 40
0.124999999999989
 40
0.124999999999989
 40
0.1874999999999835
 40
0.1874999999999835
 40
0.249999999999978
 40
0.249999999999978
 40
0.2812499999999759
 40
0.2812499999999759
 40
0.2968749999999751
 40
0.2968749999999751
 40
0.3124999999999742
 40
0.3749999999999676
 40
0.3749999999999676
 40
0.437499999999961
 40
0.437499999999961
 40
0.4999999999999544
 40
0.4999999999999544
 40
0.5156249999999547
 40
0.5156249999999547
 40
0.5312499999999548
 40
0.5624999999999554
 40
0.5624999999999554
 40
0.578124999999956
 40
0.578124999999956
 40
0.5937499999999567
 40
0.5937499999999567
 40
0.6249999999999581
 40
0.6249999999999581
 40
0.6874999999999606
 40
0.6874999999999606
 40
0.7499999999999631
 40
0.7499999999999631
 40
0.7656249999999658
 40
0.7656249999999658
 40
0.7812499999999684
 40
0.7812499999999684
 40
0.8124999999999764
 40
0.8124999999999764
 40
0.828124999999979
 40
0.828124999999979
 40
0.8437499999999817
 40
0.8749999999999842
 40
0.8749999999999842
 40
0.9374999999999921
 40
0.9374999999999921
 40
1.0
 40
1.0
 40
1.0
 40
1.0
 10
398.9444007851058
 20
182.9051600469838
 30
0.0
 10
398.7212737928878
 20
183.1030528122903
 30
0.0
 10
398.4988798251027
 20
183.2963476644178
 30
0.0
 10
398.0559236358829
 20
183.6736018921222
 30
0.0
 10
397.8353609026458
 20
183.8575620881457
 30
0.0
 10
397.3964726628667
 20
184.2158946880496
 30
0.0
 10
397.1781464363968
 20
184.3902683400045
 30
0.0
 10
396.7441953632908
 20
184.7290314362177
 30
0.0
 10
396.5285694526926
 20
184.8934228248358
 30
0.0
 10
396.2075683483015
 20
185.1320813659642
 30
0.0
 10
396.1009750334156
 20
185.2103111221192
 30
0.0
 10
395.9417555912168
 20
185.325597973806
 30
0.0
 10
395.8887448224331
 20
185.3637187950762
 30
0.0
 10
395.7833545024924
 20
185.438978272208
 30
0.0
 10
395.5213019883137
 20
185.6247846128937
 30
0.0
 10
395.2664692258706
 20
185.7988626841377
 30
0.0
 10
394.8687001985612
 20
186.0619673729971
 30
0.0
 10
394.6747951933766
 20
186.1858122471145
 30
0.0
 10
394.2978713080308
 20
186.4173552768534
 30
0.0
 10
394.1148489975051
 20
186.5250578389021
 30
0.0
 10
393.8936297258124
 20
186.6488757577268
 30
0.0
 10
393.8497430088056
 20
186.6731088282576
 30
0.0
 10
393.7630442632022
 20
186.7203098718277
 30
0.0
 10
393.6345055175294
 20
186.7892720165329
 30
0.0
 10
393.510554808137
 20
186.8526785452119
 30
0.0
 10
393.3897581858675
 20
186.9123099262031
 30
0.0
 10
393.3500185018473
 20
186.9315576184511
 30
0.0
 10
393.2716090208481
 20
186.968779116255
 30
0.0
 10
393.2330333601752
 20
186.9867080329259
 30
0.0
 10
393.1192853613911
 20
187.0384141553935
 30
0.0
 10
393.0460517781197
 20
187.0701304968831
 30
0.0
 10
392.8341781091573
 20
187.1570454374123
 30
0.0
 10
392.7033524214475
 20
187.2040265547415
 30
0.0
 10
392.4630102468228
 20
187.2758302334194
 30
0.0
 10
392.3534914003096
 20
187.3006552726484
 30
0.0
 10
392.2304692901642
 20
187.3173423907508
 30
0.0
 10
392.2065598645695
 20
187.319961111264
 30
0.0
 10
392.1601499594894
 20
187.3237424540002
 30
0.0
 10
392.1376289070625
 20
187.3249048571647
 30
0.0
 10
392.0724189432678
 20
187.3261754463194
 30
0.0
 10
392.032051324135
 20
187.3240768450565
 30
0.0
 10
391.9761483290661
 20
187.3165179332709
 30
0.0
 10
391.9582739808912
 20
187.313258778313
 30
0.0
 10
391.9241674006067
 20
187.305290753143
 30
0.0
 10
391.8754653633054
 20
187.2911688570127
 30
0.0
 10
391.8340290693141
 20
187.2706264814178
 30
0.0
 10
391.7606109449413
 20
187.2211615589011
 30
0.0
 10
391.7242558538563
 20
187.1770283182478
 30
0.0
 10
391.6758967576475
 20
187.0669684249923
 30
0.0
 10
391.6638948357411
 20
187.001040144269
 30
0.0
 10
391.6638948357411
 20
186.9242105807874
 30
0.0
  0
SPLINE
  5
195
330
1F
100
AcDbEntity
  8
1
  6
Continuous
 62
    30
370
    13
100
AcDbSpline
210
0.0
220
0.0
230
1.0
 70
     8
 71
     3
 72
    53
 73
    49
 74
     0
 42
0.000000001
 43
0.0000000001
 40
0.0
 40
0.0
 40
0.0
 40
0.0
 40
0.0625000000000027
 40
0.0625000000000027
 40
0.1250000000000055
 40
0.1250000000000055
 40
0.1875000000000082
 40
0.1875000000000082
 40
0.2187500000000082
 40
0.2187500000000082
 40
0.2343750000000094
 40
0.2343750000000094
 40
0.2500000000000107
 40
0.2500000000000107
 40
0.3125000000000078
 40
0.3125000000000078
 40
0.3750000000000048
 40
0.3750000000000048
 40
0.4375000000000019
 40
0.4375000000000019
 40
0.4531249999999997
 40
0.4531249999999997
 40
0.4687499999999975
 40
0.4687499999999975
 40
0.4999999999999953
 40
0.4999999999999953
 40
0.5624999999999936
 40
0.5624999999999936
 40
0.6249999999999918
 40
0.6249999999999918
 40
0.6874999999999901
 40
0.6874999999999901
 40
0.7031249999999896
 40
0.7031249999999896
 40
0.718749999999989
 40
0.7499999999999893
 40
0.7499999999999893
 40
0.8124999999999917
 40
0.8124999999999917
 40
0.874999999999994
 40
0.874999999999994
 40
0.9374999999999962
 40
0.9374999999999962
 40
0.9531249999999969
 40
0.9531249999999969
 40
0.9687499999999974
 40
0.9687499999999974
 40
1.0
 40
1.0
 40
1.0
 40
1.0
 10
391.6638948357411
 20
108.7577215973362
 30
0.0
 10
391.6638948357411
 20
108.680699450293
 30
0.0
 10
391.6759572264831
 20
108.6148059960021
 30
0.0
 10
391.7242332457421
 20
108.5049754660391
 30
0.0
 10
391.7604459087221
 20
108.4610378962872
 30
0.0
 10
391.8575025530926
 20
108.3953363834859
 30
0.0
 10
391.9183439433198
 20
108.3735700701963
 30
0.0
 10
392.0288182245648
 20
108.3581320404168
 30
0.0
 10
392.0688492016596
 20
108.3558591812303
 30
0.0
 10
392.1338396467514
 20
108.3568780754741
 30
0.0
 10
392.1563612454557
 20
108.3579606475198
 30
0.0
 10
392.2027472005465
 20
108.3615928444775
 30
0.0
 10
392.2266401525262
 20
108.3641409372533
 30
0.0
 10
392.3495493443078
 20
108.3804855954905
 30
0.0
 10
392.4588791313036
 20
108.4050696410931
 30
0.0
 10
392.6984582421976
 20
108.4762490220824
 30
0.0
 10
392.8287105878958
 20
108.5228476682625
 30
0.0
 10
393.1095037867513
 20
108.6376361475602
 30
0.0
 10
393.2600461567921
 20
108.7058272846165
 30
0.0
 10
393.4607464113858
 20
108.8046147360685
 30
0.0
 10
393.5015134542517
 20
108.8250508585712
 30
0.0
 10
393.5843009963469
 20
108.8672864968525
 30
0.0
 10
393.6261442734335
 20
108.8889957232662
 30
0.0
 10
393.7529132863347
 20
108.9558231466452
 30
0.0
 10
393.8391094835715
 20
109.0026563295352
 30
0.0
 10
394.1024889543502
 20
109.1497461427754
 30
0.0
 10
394.2844537148274
 20
109.2565793904073
 30
0.0
 10
394.6600247789913
 20
109.4868193462156
 30
0.0
 10
394.8536340392184
 20
109.6102296544713
 30
0.0
 10
395.2516529277061
 20
109.8730555256159
 30
0.0
 10
395.4560644686742
 20
110.0124732182118
 30
0.0
 10
395.7179247588911
 20
110.1965874767804
 30
0.0
 10
395.7704946612473
 20
110.233819094373
 30
0.0
 10
395.8758703510413
 20
110.3089817982938
 30
0.0
 10
396.0343585883368
 20
110.4228250334342
 30
0.0
 10
396.194068823139
 20
110.5399056818394
 30
0.0
 10
396.5149926505812
 20
110.7782485196108
 30
0.0
 10
396.7309432012509
 20
110.9427126444597
 30
0.0
 10
397.1662664055141
 20
111.2822413543087
 30
0.0
 10
397.3856401327244
 20
111.4573076959907
 30
0.0
 10
397.8273200025857
 20
111.8176953625101
 30
0.0
 10
398.049626884937
 20
112.0030178194222
 30
0.0
 10
398.3290754327692
 20
112.2409545531811
 30
0.0
 10
398.3850435117993
 20
112.2888563951838
 30
0.0
 10
398.4971301440516
 20
112.3852870902951
 30
0.0
 10
398.5531641149611
 20
112.4337433242367
 30
0.0
 10
398.7210782440617
 20
112.5796933917983
 30
0.0
 10
398.8328368765506
 20
112.6778253826855
 30
0.0
 10
398.9444007851058
 20
112.7767721311399
 30
0.0
  0
SPLINE
  5
196
330
1F
100
AcDbEntity
  8
1
  6
Continuous
 62
    30
370
    13
100
AcDbSpline
210
0.0
220
0.0
230
1.0
 70
     8
 71
     3
 72
    14
 73
    10
 74
     0
 42
0.000000001
 43
0.0000000001
 40
0.0
 40
0.0
 40
0.0
 40
0.0
 40
0.25
 40
0.25
 40
0.5
 40
0.5
 40
0.75
 40
0.75
 40
1.0
 40
1.0
 40
1.0
 40
1.0
 10
357.163894835741
 20
116.9932044503937
 30
0.0
 10
357.4991888196096
 20
116.6127784871468
 30
0.0
 10
357.8391235449807
 20
116.2397813791614
 30
0.0
 10
358.5276118279803
 20
115.5084987954087
 30
0.0
 10
358.8761685992366
 20
115.1502157282567
 30
0.0
 10
359.580959855908
 20
114.4480594981265
 30
0.0
 10
359.9371991122749
 20
114.1041899238574
 30
0.0
 10
360.6560139019921
 20
113.4303118426675
 30
0.0
 10
361.0185966090282
 20
113.100308749499
 30
0.0
 10
361.3833888863763
 20
112.7767721311399
 30
0.0
  0
SPLINE
  5
197
330
1F
100
AcDbEntity
  8
1
  6
Continuous
 62
    30
370
    13
100
AcDbSpline
210
0.0
220
0.0
230
1.0
 70
     8
 71
     3
 72
    55
 73
    51
 74
     0
 42
0.000000001
 43
0.0000000001
 40
0.0
 40
0.0
 40
0.0
 40
0.0
 40
0.0625000000000007
 40
0.0625000000000007
 40
0.1250000000000014
 40
0.1250000000000014
 40
0.1875000000000021
 40
0.1875000000000021
 40
0.2500000000000027
 40
0.2500000000000027
 40
0.2812500000000024
 40
0.2812500000000024
 40
0.2968750000000022
 40
0.2968750000000022
 40
0.312500000000002
 40
0.374999999999994
 40
0.374999999999994
 40
0.4374999999999861
 40
0.4374999999999861
 40
0.4999999999999781
 40
0.4999999999999781
 40
0.5156249999999775
 40
0.5156249999999775
 40
0.5312499999999768
 40
0.5624999999999754
 40
0.5624999999999754
 40
0.5781249999999745
 40
0.5781249999999745
 40
0.5937499999999735
 40
0.5937499999999735
 40
0.6249999999999735
 40
0.6249999999999735
 40
0.6874999999999734
 40
0.6874999999999734
 40
0.7499999999999732
 40
0.7499999999999732
 40
0.7656249999999752
 40
0.7656249999999752
 40
0.7812499999999772
 40
0.7812499999999772
 40
0.8124999999999839
 40
0.8124999999999839
 40
0.8281249999999859
 40
0.8281249999999859
 40
0.843749999999988
 40
0.8749999999999893
 40
0.8749999999999893
 40
0.9374999999999947
 40
0.9374999999999947
 40
1.0
 40
1.0
 40
1.0
 40
1.0
 10
361.3833888863763
 20
112.7767721311399
 30
0.0
 10
361.6065158785943
 20
112.5788793658334
 30
0.0
 10
361.8289098463794
 20
112.3855845137059
 30
0.0
 10
362.2718660355991
 20
112.0083302860015
 30
0.0
 10
362.4924287688362
 20
111.824370089978
 30
0.0
 10
362.9313170086154
 20
111.4660374900741
 30
0.0
 10
363.1496432350852
 20
111.2916638381192
 30
0.0
 10
363.5835943081912
 20
110.952900741906
 30
0.0
 10
363.7992202187895
 20
110.7885093532879
 30
0.0
 10
364.1202213231805
 20
110.5498508121595
 30
0.0
 10
364.2268146380664
 20
110.4716210560045
 30
0.0
 10
364.3860340802652
 20
110.3563342043177
 30
0.0
 10
364.439044849049
 20
110.3182133830475
 30
0.0
 10
364.5444351689896
 20
110.2429539059156
 30
0.0
 10
364.8064876831684
 20
110.05714756523
 30
0.0
 10
365.0613204456115
 20
109.883069493986
 30
0.0
 10
365.4590894729209
 20
109.6199648051266
 30
0.0
 10
365.6529944781055
 20
109.4961199310092
 30
0.0
 10
366.0299183634513
 20
109.2645769012703
 30
0.0
 10
366.2129406739769
 20
109.1568743392216
 30
0.0
 10
366.4341599456696
 20
109.0330564203969
 30
0.0
 10
366.4780466626764
 20
109.008823349866
 30
0.0
 10
366.5647454082799
 20
108.961622306296
 30
0.0
 10
366.6932841539527
 20
108.8926601615908
 30
0.0
 10
366.817234863345
 20
108.8292536329118
 30
0.0
 10
366.9380314856145
 20
108.7696222519206
 30
0.0
 10
366.9777711696348
 20
108.7503745596726
 30
0.0
 10
367.056180650634
 20
108.7131530618687
 30
0.0
 10
367.0947563113069
 20
108.6952241451978
 30
0.0
 10
367.2085043100909
 20
108.6435180227302
 30
0.0
 10
367.2817378933623
 20
108.6118016812406
 30
0.0
 10
367.4936115623248
 20
108.5248867407114
 30
0.0
 10
367.6244372500346
 20
108.4779056233822
 30
0.0
 10
367.8647794246592
 20
108.4061019447043
 30
0.0
 10
367.9742982711724
 20
108.3812769054752
 30
0.0
 10
368.0973203813178
 20
108.3645897873729
 30
0.0
 10
368.1212298069125
 20
108.3619710668597
 30
0.0
 10
368.1676397119926
 20
108.3581897241234
 30
0.0
 10
368.1901607644196
 20
108.357027320959
 30
0.0
 10
368.2553707282142
 20
108.3557567318043
 30
0.0
 10
368.2957383473471
 20
108.3578553330672
 30
0.0
 10
368.351641342416
 20
108.3654142448528
 30
0.0
 10
368.3695156905909
 20
108.3686733998107
 30
0.0
 10
368.4036222708753
 20
108.3766414249807
 30
0.0
 10
368.4523243081767
 20
108.390763321111
 30
0.0
 10
368.493760602168
 20
108.4113056967059
 30
0.0
 10
368.5671787265408
 20
108.4607706192226
 30
0.0
 10
368.6035338176258
 20
108.5049038598758
 30
0.0
 10
368.6518929138345
 20
108.6149637531314
 30
0.0
 10
368.663894835741
 20
108.6808920338546
 30
0.0
 10
368.663894835741
 20
108.7577215973362
 30
0.0
  0
SPLINE
  5
198
330
1F
100
AcDbEntity
  8
1
  6
Continuous
 62
    30
370
    13
100
AcDbSpline
210
0.0
220
0.0
230
1.0
 70
     8
 71
     3
 72
    53
 73
    49
 74
     0
 42
0.000000001
 43
0.0000000001
 40
0.0
 40
0.0
 40
0.0
 40
0.0
 40
0.0625000000000022
 40
0.0625000000000022
 40
0.1250000000000044
 40
0.1250000000000044
 40
0.1875000000000067
 40
0.1875000000000067
 40
0.2187500000000064
 40
0.2187500000000064
 40
0.2343750000000076
 40
0.2343750000000076
 40
0.2500000000000088
 40
0.2500000000000088
 40
0.3125000000000057
 40
0.3125000000000057
 40
0.3750000000000026
 40
0.3750000000000026
 40
0.4374999999999995
 40
0.4374999999999995
 40
0.4531249999999972
 40
0.4531249999999972
 40
0.4687499999999949
 40
0.4687499999999949
 40
0.4999999999999926
 40
0.4999999999999926
 40
0.5624999999999899
 40
0.5624999999999899
 40
0.6249999999999871
 40
0.6249999999999871
 40
0.6874999999999843
 40
0.6874999999999843
 40
0.703124999999984
 40
0.703124999999984
 40
0.7187499999999837
 40
0.7499999999999848
 40
0.7499999999999848
 40
0.8124999999999889
 40
0.8124999999999889
 40
0.874999999999993
 40
0.874999999999993
 40
0.9374999999999971
 40
0.9374999999999971
 40
0.9531249999999982
 40
0.9531249999999982
 40
0.9687499999999993
 40
0.9687499999999993
 40
1.0
 40
1.0
 40
1.0
 40
1.0
 10
368.6638948357412
 20
186.9242105807875
 30
0.0
 10
368.6638948357412
 20
187.0012327278307
 30
0.0
 10
368.6518324449992
 20
187.0671261821216
 30
0.0
 10
368.6035564257401
 20
187.1769567120845
 30
0.0
 10
368.5673437627601
 20
187.2208942818365
 30
0.0
 10
368.4702871183897
 20
187.2865957946377
 30
0.0
 10
368.4094457281624
 20
187.3083621079274
 30
0.0
 10
368.2989714469174
 20
187.3238001377069
 30
0.0
 10
368.2589404698226
 20
187.3260729968933
 30
0.0
 10
368.1939500247308
 20
187.3250541026495
 30
0.0
 10
368.1714284260265
 20
187.3239715306038
 30
0.0
 10
368.1250424709357
 20
187.3203393336462
 30
0.0
 10
368.101149518956
 20
187.3177912408704
 30
0.0
 10
367.9782403271744
 20
187.3014465826332
 30
0.0
 10
367.8689105401786
 20
187.2768625370306
 30
0.0
 10
367.6293314292847
 20
187.2056831560413
 30
0.0
 10
367.4990790835864
 20
187.1590845098612
 30
0.0
 10
367.2182858847309
 20
187.0442960305635
 30
0.0
 10
367.0677435146901
 20
186.9761048935071
 30
0.0
 10
366.8670432600965
 20
186.8773174420551
 30
0.0
 10
366.8262762172306
 20
186.8568813195525
 30
0.0
 10
366.7434886751353
 20
186.8146456812711
 30
0.0
 10
366.7016453980488
 20
186.7929364548575
 30
0.0
 10
366.5748763851476
 20
186.7261090314785
 30
0.0
 10
366.4886801879107
 20
186.6792758485884
 30
0.0
 10
366.225300717132
 20
186.5321860353483
 30
0.0
 10
366.0433359566549
 20
186.4253527877163
 30
0.0
 10
365.6677648924909
 20
186.1951128319081
 30
0.0
 10
365.4741556322639
 20
186.0717025236524
 30
0.0
 10
365.0761367437761
 20
185.8088766525078
 30
0.0
 10
364.871725202808
 20
185.6694589599119
 30
0.0
 10
364.6098649125911
 20
185.4853447013433
 30
0.0
 10
364.557295010235
 20
185.4481130837507
 30
0.0
 10
364.4519193204409
 20
185.3729503798299
 30
0.0
 10
364.2934310831454
 20
185.2591071446895
 30
0.0
 10
364.1337208483432
 20
185.1420264962843
 30
0.0
 10
363.8127970209011
 20
184.9036836585128
 30
0.0
 10
363.5968464702314
 20
184.739219533664
 30
0.0
 10
363.1615232659682
 20
184.399690823815
 30
0.0
 10
362.9421495387578
 20
184.2246244821329
 30
0.0
 10
362.5004696688966
 20
183.8642368156136
 30
0.0
 10
362.2781627865452
 20
183.6789143587015
 30
0.0
 10
361.998714238713
 20
183.4409776249426
 30
0.0
 10
361.9427461596829
 20
183.3930757829399
 30
0.0
 10
361.8306595274306
 20
183.2966450878286
 30
0.0
 10
361.7746255565211
 20
183.248188853887
 30
0.0
 10
361.6067114274205
 20
183.1022387863254
 30
0.0
 10
361.4949527949316
 20
183.0041067954381
 30
0.0
 10
361.3833888863765
 20
182.9051600469838
 30
0.0
  0
SPLINE
  5
199
330
1F
100
AcDbEntity
  8
1
  6
Continuous
 62
    30
370
    13
100
AcDbSpline
210
0.0
220
0.0
230
1.0
 70
     8
 71
     3
 72
    14
 73
    10
 74
     0
 42
0.000000001
 43
0.0000000001
 40
0.0
 40
0.0
 40
0.0
 40
0.0
 40
0.25
 40
0.25
 40
0.5
 40
0.5
 40
0.75
 40
0.75
 40
1.0
 40
1.0
 40
1.0
 40
1.0
 10
361.3833888863765
 20
182.9051600469838
 30
0.0
 10
361.0185966090285
 20
182.5816234286247
 30
0.0
 10
360.6560139019922
 20
182.2516203354562
 30
0.0
 10
359.937199112275
 20
181.5777422542663
 30
0.0
 10
359.5809598559081
 20
181.2338726799973
 30
0.0
 10
358.8761685992367
 20
180.5317164498671
 30
0.0
 10
358.5276118279805
 20
180.173433382715
 30
0.0
 10
357.8391235449809
 20
179.4421507989623
 30
0.0
 10
357.4991888196097
 20
179.0691536909769
 30
0.0
 10
357.1638948357411
 20
178.68872772773
 30
0.0
  0
SPLINE
  5
19A
330
1F
100
AcDbEntity
  8
1
  6
Continuous
 62
    30
370
    13
100
AcDbSpline
210
0.0
220
0.0
230
1.0
 70
     8
 71
     3
 72
    19
 73
    15
 74
     0
 42
0.000000001
 43
0.0000000001
 40
0.0
 40
0.0
 40
0.0
 40
0.0
 40
0.1882704097916842
 40
0.1882704097916842
 40
0.239003509179704
 40
0.239003509179704
 40
0.2897366085677237
 40
0.3912028073437632
 40
0.3912028073437632
 40
0.5941352048958422
 40
0.5941352048958422
 40
0.7970676024479211
 40
0.7970676024479211
 40
1.0
 40
1.0
 40
1.0
 40
1.0
 10
372.3975220993396
 20
193.1806116635034
 30
0.0
 10
372.5759254608098
 20
193.211213807577
 30
0.0
 10
372.7391164121155
 20
193.2315661022869
 30
0.0
 10
372.926351070535
 20
193.2440308853513
 30
0.0
 10
372.9649664391852
 20
193.2459108257989
 30
0.0
 10
373.0398330508132
 20
193.2481194096269
 30
0.0
 10
373.1482308160093
 20
193.2490958573929
 30
0.0
 10
373.2450528967024
 20
193.24314254372
 30
0.0
 10
373.4235370582912
 20
193.2221534376351
 30
0.0
 10
373.5223360083303
 20
193.1960678189449
 30
0.0
 10
373.680427842798
 20
193.1201129883499
 30
0.0
 10
373.7397190799683
 20
193.0702429431635
 30
0.0
 10
373.8189523600436
 20
192.9465801583482
 30
0.0
 10
373.8388948357412
 20
192.872788257255
 30
0.0
 10
373.8388948357412
 20
192.7866972545463
 30
0.0
  0
SPLINE
  5
19B
330
1F
100
AcDbEntity
  8
1
  6
Continuous
 62
    30
370
    13
100
AcDbSpline
210
0.0
220
0.0
230
1.0
 70
     8
 71
     3
 72
    20
 73
    16
 74
     0
 42
0.000000001
 43
0.0000000001
 40
0.0
 40
0.0
 40
0.0
 40
0.0
 40
0.2036867481240774
 40
0.4073734962481549
 40
0.4073734962481549
 40
0.509216870310191
 40
0.509216870310191
 40
0.5601385573412064
 40
0.5855994008567142
 40
0.5855994008567142
 40
0.611060244372222
 40
0.611060244372222
 40
0.8147469924962845
 40
0.8147469924962845
 40
1.0
 40
1.0
 40
1.0
 40
1.0
 10
373.838894835741
 20
102.8952349235774
 30
0.0
 10
373.838894835741
 20
102.8089555135475
 30
0.0
 10
373.7988336870391
 20
102.6608158308781
 30
0.0
 10
373.678943417524
 20
102.5606366879337
 30
0.0
 10
373.5586634577288
 20
102.5035641966948
 30
0.0
 10
373.5135041398933
 20
102.4875545528546
 30
0.0
 10
373.438059738237
 20
102.4681107168848
 30
0.0
 10
373.3984106071346
 20
102.4595318771076
 30
0.0
 10
373.355845748632
 20
102.4526807353836
 30
0.0
 10
373.326818034271
 20
102.448498975309
 30
0.0
 10
373.3119744444444
 20
102.4466007382209
 30
0.0
 10
373.1757712188854
 20
102.4312925464308
 30
0.0
 10
373.0356445402015
 20
102.4302037073672
 30
0.0
 10
372.7329596649255
 20
102.4511842502193
 30
0.0
 10
372.5735766479281
 20
102.4711686123806
 30
0.0
 10
372.3992178208208
 20
102.501029783466
 30
0.0
  0
SPLINE
  5
19C
330
1F
100
AcDbEntity
  8
1
  6
Continuous
 62
    30
370
    13
100
AcDbSpline
210
0.0
220
0.0
230
1.0
 70
     8
 71
     3
 72
    19
 73
    15
 74
     0
 42
0.000000001
 43
0.0000000001
 40
0.0
 40
0.0
 40
0.0
 40
0.0
 40
0.1882704092545837
 40
0.1882704092545837
 40
0.2390035086761723
 40
0.2390035086761723
 40
0.2897366080977609
 40
0.3912028069409378
 40
0.3912028069409378
 40
0.5941352046272919
 40
0.5941352046272919
 40
0.7970676023136459
 40
0.7970676023136459
 40
1.0
 40
1.0
 40
1.0
 40
1.0
 10
387.9302675702617
 20
102.5013205142976
 30
0.0
 10
387.7518642095254
 20
102.4707183704036
 30
0.0
 10
387.5886732588483
 20
102.4503660758022
 30
0.0
 10
387.4014386009472
 20
102.4379012927723
 30
0.0
 10
387.3628232322971
 20
102.4360213523248
 30
0.0
 10
387.2879566206691
 20
102.4338127684968
 30
0.0
 10
387.179558855473
 20
102.4328363207308
 30
0.0
 10
387.0827367747799
 20
102.4387896344037
 30
0.0
 10
386.904252613191
 20
102.4597787404886
 30
0.0
 10
386.8054536631519
 20
102.4858643591788
 30
0.0
 10
386.6473618286843
 20
102.5618191897738
 30
0.0
 10
386.588070591514
 20
102.6116892349601
 30
0.0
 10
386.5088373114387
 20
102.7353520197755
 30
0.0
 10
386.4888948357411
 20
102.8091439208686
 30
0.0
 10
386.4888948357411
 20
102.8952349235774
 30
0.0
  0
SPLINE
  5
19D
330
1F
100
AcDbEntity
  8
1
  6
Continuous
 62
    30
370
    13
100
AcDbSpline
210
0.0
220
0.0
230
1.0
 70
     8
 71
     3
 72
    20
 73
    16
 74
     0
 42
0.000000001
 43
0.0000000001
 40
0.0
 40
0.0
 40
0.0
 40
0.0
 40
0.2036867481232964
 40
0.4073734962465927
 40
0.4073734962465927
 40
0.5092168703082384
 40
0.5092168703082384
 40
0.5601385573390585
 40
0.5855994008544687
 40
0.5855994008544687
 40
0.6110602443698787
 40
0.6110602443698787
 40
0.8147469924931594
 40
0.8147469924931594
 40
1.0
 40
1.0
 40
1.0
 40
1.0
 10
386.4888948357411
 20
192.7866972545463
 30
0.0
 10
386.4888948357411
 20
192.8729766645762
 30
0.0
 10
386.528955984443
 20
193.0211163472455
 30
0.0
 10
386.6488462539581
 20
193.12129549019
 30
0.0
 10
386.7691262137532
 20
193.1783679814288
 30
0.0
 10
386.8142855315888
 20
193.194377625269
 30
0.0
 10
386.8897299332451
 20
193.2138214612388
 30
0.0
 10
386.9293790643475
 20
193.2224003010161
 30
0.0
 10
386.9719439228501
 20
193.22925144274
 30
0.0
 10
387.000971637211
 20
193.2334332028147
 30
0.0
 10
387.0158152270376
 20
193.2353314399028
 30
0.0
 10
387.1520184525966
 20
193.2506396316929
 30
0.0
 10
387.2921451312806
 20
193.2517284707565
 30
0.0
 10
387.5948300065594
 20
193.2307479279042
 30
0.0
 10
387.7542130235606
 20
193.2107635657422
 30
0.0
 10
387.9285718506721
 20
193.1809023946558
 30
0.0
  0
SPLINE
  5
19E
330
1F
100
AcDbEntity
  8
1
  6
Continuous
 62
    30
370
    13
100
AcDbSpline
210
0.0
220
0.0
230
1.0
 70
     8
 71
     3
 72
    49
 73
    45
 74
     0
 42
0.000000001
 43
0.0000000001
 40
0.0
 40
0.0
 40
0.0
 40
0.0
 40
0.0637247069233404
 40
0.0637247069233404
 40
0.1274494138466808
 40
0.1274494138466808
 40
0.1911741207700212
 40
0.1911741207700212
 40
0.2071052975008555
 40
0.2071052975008555
 40
0.2230364742316898
 40
0.2230364742316898
 40
0.2548988276933613
 40
0.2548988276933613
 40
0.2708300044241981
 40
0.2708300044241981
 40
0.286761181155035
 40
0.3186235346167056
 40
0.3186235346167056
 40
0.3823482415400465
 40
0.3823482415400465
 40
0.4460729484633874
 40
0.4460729484633874
 40
0.5097976553867282
 40
0.5097976553867282
 40
0.5257288321175632
 40
0.5257288321175632
 40
0.5416600088483982
 40
0.5416600088483982
 40
0.5735223623100663
 40
0.5735223623100663
 40
0.6372470692334025
 40
0.6372470692334025
 40
0.7009717761567388
 40
0.7009717761567388
 40
0.7646964830800751
 40
0.7646964830800751
 40
0.8921458969267493
 40
0.8921458969267493
 40
0.9558706038500864
 40
0.9558706038500864
 40
0.987732957311755
 40
0.987732957311755
 40
1.0
 40
1.0
 40
1.0
 40
1.0
 10
368.663894835741
 20
128.443801347791
 30
0.0
 10
368.663894835741
 20
128.4883585938988
 30
0.0
 10
368.6534044597947
 20
128.5465952711884
 30
0.0
 10
368.6135968848231
 20
128.6881071037612
 30
0.0
 10
368.5842734268571
 20
128.7713884121836
 30
0.0
 10
368.5083844950082
 20
128.9612809904004
 30
0.0
 10
368.4618150649224
 20
129.0678961923369
 30
0.0
 10
368.393566821183
 20
129.2149573431077
 30
0.0
 10
368.3794145102601
 20
129.2450601299567
 30
0.0
 10
368.3501199986774
 20
129.3066305916382
 30
0.0
 10
368.334986913521
 20
129.3380785023785
 30
0.0
 10
368.288287639696
 20
129.4341173276971
 30
0.0
 10
368.2553778819506
 20
129.5004960550038
 30
0.0
 10
368.2034942185671
 20
129.603425033812
 30
0.0
 10
368.1858025574491
 20
129.6382493497052
 30
0.0
 10
368.1497015445083
 20
129.7088006838662
 30
0.0
 10
368.0944511812007
 20
129.8160256211708
 30
0.0
 10
368.0360317544573
 20
129.9272989477164
 30
0.0
 10
367.9152625466157
 20
130.1549059178418
 30
0.0
 10
367.8295199175476
 20
130.3133789192188
 30
0.0
 10
367.6488368673761
 20
130.6423460700569
 30
0.0
 10
367.5538928492174
 20
130.8128441828129
 30
0.0
 10
367.3557599770108
 20
131.1647636413953
 30
0.0
 10
367.2525688294586
 20
131.3461875299649
 30
0.0
 10
367.1188899034801
 20
131.5792607708008
 30
0.0
 10
367.0919191823951
 20
131.6261905932922
 30
0.0
 10
367.037517872631
 20
131.7206690742069
 30
0.0
 10
367.0100842332963
 20
131.7682228590749
 30
0.0
 10
366.9273458941963
 20
131.9113848942038
 30
0.0
 10
366.8715260011136
 20
132.0076293298885
 30
0.0
 10
366.7022085412987
 20
132.2986386784149
 30
0.0
 10
366.5868573292145
 20
132.4956752625871
 30
0.0
 10
366.3517592631776
 20
132.8952224823437
 30
0.0
 10
366.2320111407334
 20
133.0977344207529
 30
0.0
 10
365.9885485651724
 20
133.5077737384909
 30
0.0
 10
365.8648332651045
 20
133.7153019920144
 30
0.0
 10
365.4882526191526
 20
134.3448604830775
 30
0.0
 10
365.2299760658537
 20
134.7738385248034
 30
0.0
 10
364.8332452266077
 20
135.4296046337521
 30
0.0
 10
364.6994423840542
 20
135.6502503609713
 30
0.0
 10
364.4965401851029
 20
135.9841573569244
 30
0.0
 10
364.428515418062
 20
136.0959891559087
 30
0.0
 10
364.3340846728111
 20
136.2510855060257
 30
0.0
 10
364.3078047390628
 20
136.294232976365
 30
0.0
 10
364.2814951135395
 20
136.3374140033266
 30
0.0
  0
SPLINE
  5
19F
330
1F
100
AcDbEntity
  8
1
  6
Continuous
 62
    30
370
    13
100
AcDbSpline
210
0.0
220
0.0
230
1.0
 70
     8
 71
     3
 72
    49
 73
    45
 74
     0
 42
0.000000001
 43
0.0000000001
 40
0.0
 40
0.0
 40
0.0
 40
0.0
 40
0.012235571134392
 40
0.012235571134392
 40
0.0440989398074753
 40
0.0440989398074753
 40
0.1078256771536419
 40
0.1078256771536419
 40
0.2352791518459756
 40
0.2352791518459756
 40
0.2990058891921425
 40
0.2990058891921425
 40
0.3627326265383093
 40
0.3627326265383093
 40
0.4264593638844764
 40
0.4264593638844764
 40
0.4583227325575595
 40
0.4583227325575595
 40
0.4742544168941024
 40
0.4742544168941024
 40
0.4901861012306448
 40
0.4901861012306448
 40
0.5539128385768142
 40
0.5539128385768142
 40
0.6176395759229835
 40
0.6176395759229835
 40
0.6813663132691531
 40
0.6813663132691531
 40
0.713229681942238
 40
0.729161366278782
 40
0.729161366278782
 40
0.7450930506153258
 40
0.7450930506153258
 40
0.7769564192884114
 40
0.7769564192884114
 40
0.7928881036249527
 40
0.7928881036249527
 40
0.8088197879614942
 40
0.8088197879614942
 40
0.8725465253076626
 40
0.8725465253076626
 40
0.9362732626538314
 40
0.9362732626538314
 40
1.0
 40
1.0
 40
1.0
 40
1.0
 10
364.2817001162369
 20
159.3448546385402
 30
0.0
 10
364.3079412534869
 20
159.3879233368301
 30
0.0
 10
364.3341528517497
 20
159.4309586515652
 30
0.0
 10
364.4285154180621
 20
159.5859430222151
 30
0.0
 10
364.496540185103
 20
159.6977748211993
 30
0.0
 10
364.6994423840543
 20
160.0316818171524
 30
0.0
 10
364.8332452266077
 20
160.2523275443716
 30
0.0
 10
365.2299760658537
 20
160.9080936533204
 30
0.0
 10
365.4882526191527
 20
161.3370716950462
 30
0.0
 10
365.8648332651046
 20
161.9666301861093
 30
0.0
 10
365.9885485651724
 20
162.1741584396328
 30
0.0
 10
366.2320111407335
 20
162.5841977573708
 30
0.0
 10
366.3517592631777
 20
162.78670969578
 30
0.0
 10
366.5868573292146
 20
163.1862569155366
 30
0.0
 10
366.7022085412988
 20
163.3832934997088
 30
0.0
 10
366.8715260011136
 20
163.6743028482352
 30
0.0
 10
366.9273458941963
 20
163.7705472839199
 30
0.0
 10
367.0100842332963
 20
163.9137093190488
 30
0.0
 10
367.037517872631
 20
163.9612631039168
 30
0.0
 10
367.0919191823953
 20
164.0557415848316
 30
0.0
 10
367.1188899034802
 20
164.1026714073229
 30
0.0
 10
367.2525688294587
 20
164.3357446481588
 30
0.0
 10
367.3557599770108
 20
164.5171685367284
 30
0.0
 10
367.5538928492176
 20
164.8690879953108
 30
0.0
 10
367.6488368673762
 20
165.0395861080669
 30
0.0
 10
367.8295199175477
 20
165.3685532589049
 30
0.0
 10
367.9152625466158
 20
165.5270262602819
 30
0.0
 10
368.0360317544574
 20
165.7546332304073
 30
0.0
 10
368.0944511812008
 20
165.8659065569529
 30
0.0
 10
368.1497015445083
 20
165.9731314942575
 30
0.0
 10
368.1858025574492
 20
166.0436828284185
 30
0.0
 10
368.2034942185672
 20
166.0785071443117
 30
0.0
 10
368.2553778819507
 20
166.1814361231199
 30
0.0
 10
368.2882876396961
 20
166.2478148504266
 30
0.0
 10
368.3349869135212
 20
166.3438536757452
 30
0.0
 10
368.3501199986775
 20
166.3753015864855
 30
0.0
 10
368.3794145102602
 20
166.436872048167
 30
0.0
 10
368.393566821183
 20
166.466974835016
 30
0.0
 10
368.4618150649225
 20
166.6140359857868
 30
0.0
 10
368.5083844950083
 20
166.7206511877233
 30
0.0
 10
368.5842734268572
 20
166.9105437659401
 30
0.0
 10
368.6135968848232
 20
166.9938250743625
 30
0.0
 10
368.6534044597948
 20
167.1353369069353
 30
0.0
 10
368.6638948357411
 20
167.1935735842249
 30
0.0
 10
368.6638948357411
 20
167.2381308303327
 30
0.0
  0
SPLINE
  5
1A0
330
1F
100
AcDbEntity
  8
1
  6
Continuous
 62
    30
370
    18
100
AcDbSpline
210
0.0
220
0.0
230
1.0
 70
    24
 71
     3
 72
     8
 73
     4
 74
     0
 42
0.000000001
 43
0.0000000001
 40
0.0
 40
0.0
 40
0.0
 40
0.0
 40
1.0
 40
1.0
 40
1.0
 40
1.0
 10
392.1638948357411
 20
136.2057060842058
 30
0.0
 10
392.1638948357411
 20
136.2004694280349
 30
0.0
 10
392.1638948357411
 20
136.195232771864
 30
0.0
 10
392.1638948357411
 20
136.189996115693
 30
0.0
  0
SPLINE
  5
1A1
330
1F
100
AcDbEntity
  8
1
  6
Continuous
 62
    30
370
    18
100
AcDbSpline
210
0.0
220
0.0
230
1.0
 70
    24
 71
     3
 72
     8
 73
     4
 74
     0
 42
0.000000001
 43
0.0000000001
 40
0.0
 40
0.0
 40
0.0
 40
0.0
 40
1.0
 40
1.0
 40
1.0
 40
1.0
 10
368.1638948357411
 20
159.4762260939178
 30
0.0
 10
368.1638948357411
 20
159.4814627500888
 30
0.0
 10
368.1638948357411
 20
159.4866994062597
 30
0.0
 10
368.1638948357411
 20
159.4919360624306
 30
0.0
  0
SPLINE
  5
1A2
330
1F
100
AcDbEntity
  8
1
  6
Continuous
 62
    30
370
    18
100
AcDbSpline
210
0.0
220
0.0
230
1.0
 70
    24
 71
     3
 72
     8
 73
     4
 74
     0
 42
0.000000001
 43
0.0000000001
 40
0.0
 40
0.0
 40
0.0
 40
0.0
 40
1.0
 40
1.0
 40
1.0
 40
1.0
 10
392.1638948357411
 20
135.963266716429
 30
0.0
 10
392.1638948357411
 20
135.7552286485474
 30
0.0
 10
392.1638948357411
 20
135.5471905806657
 30
0.0
 10
392.1638948357411
 20
135.339152512784
 30
0.0
  0
SPLINE
  5
1A3
330
1F
100
AcDbEntity
  8
1
  6
Continuous
 62
    30
370
    18
100
AcDbSpline
210
0.0
220
0.0
230
1.0
 70
    24
 71
     3
 72
     8
 73
     4
 74
     0
 42
0.000000001
 43
0.0000000001
 40
0.0
 40
0.0
 40
0.0
 40
0.0
 40
1.0
 40
1.0
 40
1.0
 40
1.0
 10
368.1638948357411
 20
159.4919360624306
 30
0.0
 10
368.1638948357411
 20
159.567512528852
 30
0.0
 10
368.1638948357411
 20
159.6430889952733
 30
0.0
 10
368.1638948357411
 20
159.7186654616947
 30
0.0
  0
SPLINE
  5
1A4
330
1F
100
AcDbEntity
  8
1
  6
Continuous
 62
    30
370
    18
100
AcDbSpline
210
0.0
220
0.0
230
1.0
 70
    24
 71
     3
 72
     8
 73
     4
 74
     0
 42
0.000000001
 43
0.0000000001
 40
0.0
 40
0.0
 40
0.0
 40
0.0
 40
1.0
 40
1.0
 40
1.0
 40
1.0
 10
368.1638948357411
 20
159.7186654616947
 30
0.0
 10
368.1638948357411
 20
159.9267035295763
 30
0.0
 10
368.1638948357411
 20
160.134741597458
 30
0.0
 10
368.1638948357411
 20
160.3427796653396
 30
0.0
  0
SPLINE
  5
1A5
330
1F
100
AcDbEntity
  8
1
  6
Continuous
 62
    30
370
    18
100
AcDbSpline
210
0.0
220
0.0
230
1.0
 70
    24
 71
     3
 72
     8
 73
     4
 74
     0
 42
0.000000001
 43
0.0000000001
 40
0.0
 40
0.0
 40
0.0
 40
0.0
 40
1.0
 40
1.0
 40
1.0
 40
1.0
 10
392.1638948357411
 20
136.189996115693
 30
0.0
 10
392.1638948357411
 20
136.1144196492717
 30
0.0
 10
392.1638948357411
 20
136.0388431828504
 30
0.0
 10
392.1638948357411
 20
135.963266716429
 30
0.0
  0
SPLINE
  5
1A6
330
1F
100
AcDbEntity
  8
1
  6
Continuous
 62
    30
370
    18
100
AcDbSpline
210
0.0
220
0.0
230
1.0
 70
    24
 71
     3
 72
     8
 73
     4
 74
     0
 42
0.000000001
 43
0.0000000001
 40
0.0
 40
0.0
 40
0.0
 40
0.0
 40
1.0
 40
1.0
 40
1.0
 40
1.0
 10
392.1638948357411
 20
136.3332310842058
 30
0.0
 10
392.1638948357411
 20
136.271428594121
 30
0.0
 10
392.1638948357411
 20
136.2288952302928
 30
0.0
 10
392.1638948357411
 20
136.2057060842058
 30
0.0
  0
SPLINE
  5
1A7
330
1F
100
AcDbEntity
  8
1
  6
Continuous
 62
    30
370
    18
100
AcDbSpline
210
0.0
220
0.0
230
1.0
 70
    24
 71
     3
 72
     8
 73
     4
 74
     0
 42
0.000000001
 43
0.0000000001
 40
0.0
 40
0.0
 40
0.0
 40
0.0
 40
1.0
 40
1.0
 40
1.0
 40
1.0
 10
368.1638948357411
 20
159.3487010939178
 30
0.0
 10
368.1638948357411
 20
159.4105035840027
 30
0.0
 10
368.1638948357411
 20
159.4530369478309
 30
0.0
 10
368.1638948357411
 20
159.4762260939178
 30
0.0
  0
SPLINE
  5
1A8
330
1F
100
AcDbEntity
  8
1
  6
Continuous
 62
    30
370
    13
100
AcDbSpline
210
0.0
220
0.0
230
1.0
 70
     8
 71
     3
 72
    49
 73
    45
 74
     0
 42
0.000000001
 43
0.0000000001
 40
0.0
 40
0.0
 40
0.0
 40
0.0
 40
0.0122355708859298
 40
0.0122355708859298
 40
0.0440989395670277
 40
0.0440989395670277
 40
0.1078256769292238
 40
0.1078256769292238
 40
0.2352791516536156
 40
0.2352791516536156
 40
0.2990058890158117
 40
0.2990058890158117
 40
0.3627326263780076
 40
0.3627326263780076
 40
0.4264593637402035
 40
0.4264593637402035
 40
0.4583227324213021
 40
0.4583227324213021
 40
0.4742544167618521
 40
0.4742544167618521
 40
0.4901861011024024
 40
0.4901861011024024
 40
0.5539128384646019
 40
0.5539128384646019
 40
0.6176395758268015
 40
0.6176395758268015
 40
0.681366313189001
 40
0.681366313189001
 40
0.713229681870101
 40
0.7291613662106525
 40
0.7291613662106525
 40
0.7450930505512039
 40
0.7450930505512039
 40
0.7769564192323045
 40
0.7769564192323045
 40
0.7928881035728537
 40
0.7928881035728537
 40
0.8088197879134026
 40
0.8088197879134026
 40
0.8725465252756018
 40
0.8725465252756018
 40
0.936273262637801
 40
0.936273262637801
 40
1.0
 40
1.0
 40
1.0
 40
1.0
 10
396.0460895536268
 20
136.3370775369273
 30
0.0
 10
396.0198484169176
 20
136.2940088395242
 30
0.0
 10
395.9936368191942
 20
136.2509735256745
 30
0.0
 10
395.8992742534201
 20
136.0959891559086
 30
0.0
 10
395.8312494863792
 20
135.9841573569244
 30
0.0
 10
395.6283472874279
 20
135.6502503609713
 30
0.0
 10
395.4945444448744
 20
135.429604633752
 30
0.0
 10
395.0978136056285
 20
134.7738385248033
 30
0.0
 10
394.8395370523295
 20
134.3448604830774
 30
0.0
 10
394.4629564063777
 20
133.7153019920144
 30
0.0
 10
394.3392411063097
 20
133.5077737384908
 30
0.0
 10
394.0957785307487
 20
133.0977344207528
 30
0.0
 10
393.9760304083046
 20
132.8952224823437
 30
0.0
 10
393.7409323422676
 20
132.4956752625871
 30
0.0
 10
393.6255811301834
 20
132.2986386784149
 30
0.0
 10
393.4562636703685
 20
132.0076293298885
 30
0.0
 10
393.4004437772859
 20
131.9113848942037
 30
0.0
 10
393.3177054381858
 20
131.7682228590749
 30
0.0
 10
393.2902717988511
 20
131.7206690742068
 30
0.0
 10
393.2358704890869
 20
131.6261905932921
 30
0.0
 10
393.208899768002
 20
131.5792607708008
 30
0.0
 10
393.0752208420235
 20
131.3461875299649
 30
0.0
 10
392.9720296944713
 20
131.1647636413953
 30
0.0
 10
392.7738968222646
 20
130.8128441828128
 30
0.0
 10
392.678952804106
 20
130.6423460700568
 30
0.0
 10
392.4982697539345
 20
130.3133789192188
 30
0.0
 10
392.4125271248664
 20
130.1549059178417
 30
0.0
 10
392.2917579170248
 20
129.9272989477164
 30
0.0
 10
392.2333384902814
 20
129.8160256211708
 30
0.0
 10
392.1780881269738
 20
129.7088006838662
 30
0.0
 10
392.141987114033
 20
129.6382493497051
 30
0.0
 10
392.124295452915
 20
129.603425033812
 30
0.0
 10
392.0724117895315
 20
129.5004960550038
 30
0.0
 10
392.0395020317861
 20
129.4341173276971
 30
0.0
 10
391.992802757961
 20
129.3380785023784
 30
0.0
 10
391.9776696728047
 20
129.3066305916382
 30
0.0
 10
391.948375161222
 20
129.2450601299567
 30
0.0
 10
391.9342228502991
 20
129.2149573431077
 30
0.0
 10
391.8659746065597
 20
129.0678961923369
 30
0.0
 10
391.8194051764739
 20
128.9612809904004
 30
0.0
 10
391.743516244625
 20
128.7713884121836
 30
0.0
 10
391.714192786659
 20
128.6881071037612
 30
0.0
 10
391.6743852116874
 20
128.5465952711884
 30
0.0
 10
391.6638948357411
 20
128.4883585938988
 30
0.0
 10
391.6638948357411
 20
128.443801347791
 30
0.0
  0
SPLINE
  5
1A9
330
1F
100
AcDbEntity
  8
1
  6
Continuous
 62
    30
370
    13
100
AcDbSpline
210
0.0
220
0.0
230
1.0
 70
     8
 71
     3
 72
    49
 73
    45
 74
     0
 42
0.000000001
 43
0.0000000001
 40
0.0
 40
0.0
 40
0.0
 40
0.0
 40
0.0637247069231462
 40
0.0637247069231462
 40
0.1274494138462924
 40
0.1274494138462924
 40
0.1911741207694387
 40
0.1911741207694387
 40
0.2071052975002245
 40
0.2071052975002245
 40
0.2230364742310103
 40
0.2230364742310103
 40
0.2548988276925844
 40
0.2548988276925844
 40
0.2708300044233726
 40
0.2708300044233726
 40
0.2867611811541607
 40
0.3186235346157342
 40
0.3186235346157342
 40
0.3823482415388806
 40
0.3823482415388806
 40
0.4460729484620272
 40
0.4460729484620272
 40
0.5097976553851737
 40
0.5097976553851737
 40
0.5257288321159608
 40
0.5257288321159608
 40
0.5416600088467478
 40
0.5416600088467478
 40
0.5735223623083198
 40
0.5735223623083198
 40
0.6372470692314641
 40
0.6372470692314641
 40
0.7009717761546086
 40
0.7009717761546086
 40
0.764696483077753
 40
0.764696483077753
 40
0.8921458969240421
 40
0.8921458969240421
 40
0.9558706038471865
 40
0.9558706038471865
 40
0.9877329573087587
 40
0.9877329573087587
 40
1.0
 40
1.0
 40
1.0
 40
1.0
 10
391.6638948357411
 20
167.2381308303326
 30
0.0
 10
391.6638948357411
 20
167.1935735842249
 30
0.0
 10
391.6743852116874
 20
167.1353369069353
 30
0.0
 10
391.714192786659
 20
166.9938250743625
 30
0.0
 10
391.743516244625
 20
166.91054376594
 30
0.0
 10
391.8194051764739
 20
166.7206511877232
 30
0.0
 10
391.8659746065597
 20
166.6140359857867
 30
0.0
 10
391.9342228502991
 20
166.466974835016
 30
0.0
 10
391.948375161222
 20
166.436872048167
 30
0.0
 10
391.9776696728047
 20
166.3753015864854
 30
0.0
 10
391.992802757961
 20
166.3438536757452
 30
0.0
 10
392.0395020317861
 20
166.2478148504266
 30
0.0
 10
392.0724117895315
 20
166.1814361231199
 30
0.0
 10
392.124295452915
 20
166.0785071443117
 30
0.0
 10
392.141987114033
 20
166.0436828284185
 30
0.0
 10
392.1780881269738
 20
165.9731314942574
 30
0.0
 10
392.2333384902814
 20
165.8659065569528
 30
0.0
 10
392.2917579170248
 20
165.7546332304073
 30
0.0
 10
392.4125271248664
 20
165.5270262602819
 30
0.0
 10
392.4982697539345
 20
165.3685532589049
 30
0.0
 10
392.678952804106
 20
165.0395861080668
 30
0.0
 10
392.7738968222646
 20
164.8690879953108
 30
0.0
 10
392.9720296944713
 20
164.5171685367283
 30
0.0
 10
393.0752208420235
 20
164.3357446481588
 30
0.0
 10
393.208899768002
 20
164.1026714073229
 30
0.0
 10
393.2358704890869
 20
164.0557415848315
 30
0.0
 10
393.2902717988511
 20
163.9612631039168
 30
0.0
 10
393.3177054381859
 20
163.9137093190488
 30
0.0
 10
393.4004437772859
 20
163.7705472839199
 30
0.0
 10
393.4562636703685
 20
163.6743028482352
 30
0.0
 10
393.6255811301834
 20
163.3832934997087
 30
0.0
 10
393.7409323422676
 20
163.1862569155366
 30
0.0
 10
393.9760304083046
 20
162.78670969578
 30
0.0
 10
394.0957785307487
 20
162.5841977573708
 30
0.0
 10
394.3392411063097
 20
162.1741584396328
 30
0.0
 10
394.4629564063777
 20
161.9666301861093
 30
0.0
 10
394.8395370523295
 20
161.3370716950462
 30
0.0
 10
395.0978136056285
 20
160.9080936533203
 30
0.0
 10
395.4945444448744
 20
160.2523275443716
 30
0.0
 10
395.6283472874279
 20
160.0316818171524
 30
0.0
 10
395.8312494863792
 20
159.6977748211993
 30
0.0
 10
395.8992742534201
 20
159.585943022215
 30
0.0
 10
395.9937049986775
 20
159.4308466720873
 30
0.0
 10
396.0199849324323
 20
159.3876992017373
 30
0.0
 10
396.0462945579621
 20
159.3445181747651
 30
0.0
  0
ENDSEC
  0
SECTION
  2
OBJECTS
  0
DICTIONARY
  5
C
330
0
100
AcDbDictionary
281
     1
  3
ACAD_DETAILVIEWSTYLE
350
1FE
  3
ACAD_GROUP
350
D
  3
ACAD_LAYOUT
350
1A
  3
ACAD_MATERIAL
350
43
  3
ACAD_MLEADERSTYLE
350
6B
  3
ACAD_MLINESTYLE
350
17
  3
ACAD_PLOTSETTINGS
350
19
  3
ACAD_PLOTSTYLENAME
350
E
  3
ACAD_SCALELIST
350
47
  3
ACAD_SECTIONVIEWSTYLE
350
1FF
  3
ACAD_TABLESTYLE
350
69
  3
ACAD_VISUALSTYLE
350
2A
  3
ACDB_RECOMPOSE_DATA
350
1FB
  3
AcDbVariableDictionary
350
1BB
  0
DICTIONARY
  5
1B9
330
8
100
AcDbDictionary
280
     1
281
     1
  3
ACAD_XREC_ROUNDTRIP
360
1BA
  0
DICTIONARY
  5
1FE
102
{ACAD_REACTORS
330
C
102
}
330
C
100
AcDbDictionary
281
     1
  0
DICTIONARY
  5
D
102
{ACAD_REACTORS
330
C
102
}
330
C
100
AcDbDictionary
281
     1
  0
DICTIONARY
  5
1A
102
{ACAD_REACTORS
330
C
102
}
330
C
100
AcDbDictionary
281
     1
  3
Layout1
350
1E
  3
Layout2
350
26
  3
Model
350
22
  0
DICTIONARY
  5
43
102
{ACAD_REACTORS
330
C
102
}
330
C
100
AcDbDictionary
281
     1
  3
ByBlock
350
45
  3
ByLayer
350
44
  3
Global
350
46
  0
DICTIONARY
  5
6B
102
{ACAD_REACTORS
330
C
102
}
330
C
100
AcDbDictionary
281
     1
  3
Standard
350
6C
  0
DICTIONARY
  5
17
102
{ACAD_REACTORS
330
C
102
}
330
C
100
AcDbDictionary
281
     1
  3
Standard
350
18
  0
DICTIONARY
  5
19
102
{ACAD_REACTORS
330
C
102
}
330
C
100
AcDbDictionary
281
     1
  0
ACDBDICTIONARYWDFLT
  5
E
102
{ACAD_REACTORS
330
C
102
}
330
C
100
AcDbDictionary
281
     1
  3
Normal
350
F
100
AcDbDictionaryWithDefault
340
F
  0
DICTIONARY
  5
47
102
{ACAD_REACTORS
330
C
102
}
330
C
100
AcDbDictionary
281
     1
  3
A0
350
48
  3
A1
350
49
  3
A2
350
4A
  3
A3
350
4B
  3
A4
350
4C
  3
A5
350
4D
  3
A6
350
4E
  3
A7
350
4F
  3
A8
350
50
  3
A9
350
51
  3
B0
350
52
  3
B1
350
53
  3
B2
350
54
  3
B3
350
55
  3
B4
350
56
  3
B5
350
57
  3
B6
350
58
  3
B7
350
59
  3
B8
350
5A
  3
B9
350
5B
  3
C0
350
5C
  3
C1
350
5D
  3
C2
350
5E
  3
C3
350
5F
  3
C4
350
60
  3
C5
350
61
  3
C6
350
62
  3
C7
350
63
  3
C8
350
64
  3
C9
350
65
  3
D0
350
66
  3
D1
350
67
  3
D2
350
68
  0
DICTIONARY
  5
1FF
102
{ACAD_REACTORS
330
C
102
}
330
C
100
AcDbDictionary
281
     1
  0
DICTIONARY
  5
69
102
{ACAD_REACTORS
330
C
102
}
330
C
100
AcDbDictionary
281
     1
  3
Standard
350
6A
  0
DICTIONARY
  5
2A
102
{ACAD_REACTORS
330
C
102
}
330
C
100
AcDbDictionary
281
     1
  3
2dWireframe
350
2F
  3
Basic
350
32
  3
Brighten
350
36
  3
ColorChange
350
3A
  3
Conceptual
350
34
  3
Dim
350
35
  3
EdgeColorOff
350
3D
  3
Facepattern
350
39
  3
Flat
350
2B
  3
FlatWithEdges
350
2C
  3
Gouraud
350
2D
  3
GouraudWithEdges
350
2E
  3
Hidden
350
31
  3
JitterOff
350
3B
  3
Linepattern
350
38
  3
OverhangOff
350
3C
  3
Realistic
350
33
  3
Shaded
350
42
  3
Shaded with edges
350
41
  3
Shades of Gray
350
3E
  3
Sketchy
350
3F
  3
Thicken
350
37
  3
Wireframe
350
30
  3
X-Ray
350
40
  0
XRECORD
  5
1FB
102
{ACAD_REACTORS
330
C
102
}
330
C
100
AcDbXrecord
280
     1
 90
        1
330
6A
  0
DICTIONARY
  5
1BB
102
{ACAD_REACTORS
330
C
102
}
330
C
100
AcDbDictionary
281
     1
  3
CANNOSCALE
350
1BC
  3
CMLEADERSTYLE
350
1FD
  3
CTABLESTYLE
350
1FC
  3
MSLTSCALE
350
1BD
  3
XCLIPFRAME
350
1BE
  0
XRECORD
  5
1BA
102
{ACAD_REACTORS
330
1B9
102
}
330
1B9
100
AcDbXrecord
280
     1
102
VTR_0.000_0.000_1.000_1.000_VISUALSTYLE
340
2F
102
VTR_0.000_0.000_1.000_1.000_GRIDDISPLAY
 70
     3
102
VTR_0.000_0.000_1.000_1.000_GRIDMAJOR
 70
     5
102
VTR_0.000_0.000_1.000_1.000_DEFAULTLIGHTING
280
     1
102
VTR_0.000_0.000_1.000_1.000_DEFAULTLIGHTINGTYPE
 70
     1
102
VTR_0.000_0.000_1.000_1.000_BRIGHTNESS
141
0.0
102
VTR_0.000_0.000_1.000_1.000_CONTRAST
142
0.0
102
VTR_0.000_0.000_0.500_1.000_VISUALSTYLE
340
2F
102
VTR_0.000_0.000_0.500_1.000_GRIDDISPLAY
 70
     3
102
VTR_0.000_0.000_0.500_1.000_GRIDMAJOR
 70
     5
102
VTR_0.000_0.000_0.500_1.000_DEFAULTLIGHTING
280
     1
102
VTR_0.000_0.000_0.500_1.000_DEFAULTLIGHTINGTYPE
 70
     1
102
VTR_0.000_0.000_0.500_1.000_BRIGHTNESS
141
0.0
102
VTR_0.000_0.000_0.500_1.000_CONTRAST
142
0.0
102
VTR_0.500_0.000_1.000_1.000_VISUALSTYLE
340
2F
102
VTR_0.500_0.000_1.000_1.000_GRIDDISPLAY
 70
     3
102
VTR_0.500_0.000_1.000_1.000_GRIDMAJOR
 70
     5
102
VTR_0.500_0.000_1.000_1.000_DEFAULTLIGHTING
280
     1
102
VTR_0.500_0.000_1.000_1.000_DEFAULTLIGHTINGTYPE
 70
     1
102
VTR_0.500_0.000_1.000_1.000_BRIGHTNESS
141
0.0
102
VTR_0.500_0.000_1.000_1.000_CONTRAST
142
0.0
102
VTR_0.000_0.500_1.000_1.000_VISUALSTYLE
340
2F
102
VTR_0.000_0.500_1.000_1.000_GRIDDISPLAY
 70
     3
102
VTR_0.000_0.500_1.000_1.000_GRIDMAJOR
 70
     5
102
VTR_0.000_0.500_1.000_1.000_DEFAULTLIGHTING
280
     1
102
VTR_0.000_0.500_1.000_1.000_DEFAULTLIGHTINGTYPE
 70
     1
102
VTR_0.000_0.500_1.000_1.000_BRIGHTNESS
141
0.0
102
VTR_0.000_0.500_1.000_1.000_CONTRAST
142
0.0
102
VTR_0.000_0.000_1.000_0.500_VISUALSTYLE
340
2F
102
VTR_0.000_0.000_1.000_0.500_GRIDDISPLAY
 70
     3
102
VTR_0.000_0.000_1.000_0.500_GRIDMAJOR
 70
     5
102
VTR_0.000_0.000_1.000_0.500_DEFAULTLIGHTING
280
     1
102
VTR_0.000_0.000_1.000_0.500_DEFAULTLIGHTINGTYPE
 70
     1
102
VTR_0.000_0.000_1.000_0.500_BRIGHTNESS
141
0.0
102
VTR_0.000_0.000_1.000_0.500_CONTRAST
142
0.0
102
VTR_0.000_0.500_0.500_1.000_VISUALSTYLE
340
2F
102
VTR_0.000_0.500_0.500_1.000_GRIDDISPLAY
 70
     3
102
VTR_0.000_0.500_0.500_1.000_GRIDMAJOR
 70
     5
102
VTR_0.000_0.500_0.500_1.000_DEFAULTLIGHTING
280
     1
102
VTR_0.000_0.500_0.500_1.000_DEFAULTLIGHTINGTYPE
 70
     1
102
VTR_0.000_0.500_0.500_1.000_BRIGHTNESS
141
0.0
102
VTR_0.000_0.500_0.500_1.000_CONTRAST
142
0.0
102
VTR_0.000_0.000_0.500_0.500_VISUALSTYLE
340
2F
102
VTR_0.000_0.000_0.500_0.500_GRIDDISPLAY
 70
     3
102
VTR_0.000_0.000_0.500_0.500_GRIDMAJOR
 70
     5
102
VTR_0.000_0.000_0.500_0.500_DEFAULTLIGHTING
280
     1
102
VTR_0.000_0.000_0.500_0.500_DEFAULTLIGHTINGTYPE
 70
     1
102
VTR_0.000_0.000_0.500_0.500_BRIGHTNESS
141
0.0
102
VTR_0.000_0.000_0.500_0.500_CONTRAST
142
0.0
102
VTR_0.500_0.000_1.000_0.500_VISUALSTYLE
340
2F
102
VTR_0.500_0.000_1.000_0.500_GRIDDISPLAY
 70
     3
102
VTR_0.500_0.000_1.000_0.500_GRIDMAJOR
 70
     5
102
VTR_0.500_0.000_1.000_0.500_DEFAULTLIGHTING
280
     1
102
VTR_0.500_0.000_1.000_0.500_DEFAULTLIGHTINGTYPE
 70
     1
102
VTR_0.500_0.000_1.000_0.500_BRIGHTNESS
141
0.0
102
VTR_0.500_0.000_1.000_0.500_CONTRAST
142
0.0
102
VTR_0.500_0.500_1.000_1.000_VISUALSTYLE
340
2F
102
VTR_0.500_0.500_1.000_1.000_GRIDDISPLAY
 70
     3
102
VTR_0.500_0.500_1.000_1.000_GRIDMAJOR
 70
     5
102
VTR_0.500_0.500_1.000_1.000_DEFAULTLIGHTING
280
     1
102
VTR_0.500_0.500_1.000_1.000_DEFAULTLIGHTINGTYPE
 70
     1
102
VTR_0.500_0.500_1.000_1.000_BRIGHTNESS
141
0.0
102
VTR_0.500_0.500_1.000_1.000_CONTRAST
142
0.0
102
VTR_0.000_0.500_0.333_1.000_VISUALSTYLE
340
2F
102
VTR_0.000_0.500_0.333_1.000_GRIDDISPLAY
 70
     3
102
VTR_0.000_0.500_0.333_1.000_GRIDMAJOR
 70
     5
102
VTR_0.000_0.500_0.333_1.000_DEFAULTLIGHTING
280
     1
102
VTR_0.000_0.500_0.333_1.000_DEFAULTLIGHTINGTYPE
 70
     1
102
VTR_0.000_0.500_0.333_1.000_BRIGHTNESS
141
0.0
102
VTR_0.000_0.500_0.333_1.000_CONTRAST
142
0.0
102
VTR_0.000_0.000_0.333_0.500_VISUALSTYLE
340
2F
102
VTR_0.000_0.000_0.333_0.500_GRIDDISPLAY
 70
     3
102
VTR_0.000_0.000_0.333_0.500_GRIDMAJOR
 70
     5
102
VTR_0.000_0.000_0.333_0.500_DEFAULTLIGHTING
280
     1
102
VTR_0.000_0.000_0.333_0.500_DEFAULTLIGHTINGTYPE
 70
     1
102
VTR_0.000_0.000_0.333_0.500_BRIGHTNESS
141
0.0
102
VTR_0.000_0.000_0.333_0.500_CONTRAST
142
0.0
102
VTR_0.333_0.500_0.667_1.000_VISUALSTYLE
340
2F
102
VTR_0.333_0.500_0.667_1.000_GRIDDISPLAY
 70
     3
102
VTR_0.333_0.500_0.667_1.000_GRIDMAJOR
 70
     5
102
VTR_0.333_0.500_0.667_1.000_DEFAULTLIGHTING
280
     1
102
VTR_0.333_0.500_0.667_1.000_DEFAULTLIGHTINGTYPE
 70
     1
102
VTR_0.333_0.500_0.667_1.000_BRIGHTNESS
141
0.0
102
VTR_0.333_0.500_0.667_1.000_CONTRAST
142
0.0
102
VTR_0.333_0.000_0.667_0.500_VISUALSTYLE
340
2F
102
VTR_0.333_0.000_0.667_0.500_GRIDDISPLAY
 70
     3
102
VTR_0.333_0.000_0.667_0.500_GRIDMAJOR
 70
     5
102
VTR_0.333_0.000_0.667_0.500_DEFAULTLIGHTING
280
     1
102
VTR_0.333_0.000_0.667_0.500_DEFAULTLIGHTINGTYPE
 70
     1
102
VTR_0.333_0.000_0.667_0.500_BRIGHTNESS
141
0.0
102
VTR_0.333_0.000_0.667_0.500_CONTRAST
142
0.0
102
VTR_0.667_0.500_1.000_1.000_VISUALSTYLE
340
2F
102
VTR_0.667_0.500_1.000_1.000_GRIDDISPLAY
 70
     3
102
VTR_0.667_0.500_1.000_1.000_GRIDMAJOR
 70
     5
102
VTR_0.667_0.500_1.000_1.000_DEFAULTLIGHTING
280
     1
102
VTR_0.667_0.500_1.000_1.000_DEFAULTLIGHTINGTYPE
 70
     1
102
VTR_0.667_0.500_1.000_1.000_BRIGHTNESS
141
0.0
102
VTR_0.667_0.500_1.000_1.000_CONTRAST
142
0.0
102
VTR_0.667_0.000_1.000_0.500_VISUALSTYLE
340
2F
102
VTR_0.667_0.000_1.000_0.500_GRIDDISPLAY
 70
     3
102
VTR_0.667_0.000_1.000_0.500_GRIDMAJOR
 70
     5
102
VTR_0.667_0.000_1.000_0.500_DEFAULTLIGHTING
280
     1
102
VTR_0.667_0.000_1.000_0.500_DEFAULTLIGHTINGTYPE
 70
     1
102
VTR_0.667_0.000_1.000_0.500_BRIGHTNESS
141
0.0
102
VTR_0.667_0.000_1.000_0.500_CONTRAST
142
0.0
  0
LAYOUT
  5
1E
102
{ACAD_REACTORS
330
1A
102
}
330
1A
100
AcDbPlotSettings
  1

  2
none_device
  4

  6

 40
0.0
 41
0.0
 42
0.0
 43
0.0
 44
0.0
 45
0.0
 46
0.0
 47
0.0
 48
0.0
 49
0.0
140
0.0
141
0.0
142
1.0
143
1.0
 70
   688
 72
     0
 73
     0
 74
     5
  7

 75
    16
 76
     0
 77
     2
 78
   300
147
1.0
148
0.0
149
0.0
100
AcDbLayout
  1
Layout1
 70
     1
 71
     1
 10
-0.5
 20
-0.5
 11
5.0
 21
5.0
 12
0.0
 22
0.0
 32
0.0
 14
-0.5
 24
-0.5
 34
-0.5
 15
5.0
 25
5.0
 35
5.0
146
0.0
 13
0.0
 23
0.0
 33
0.0
 16
1.0
 26
0.0
 36
0.0
 17
0.0
 27
1.0
 37
0.0
 76
     0
330
1B
  0
LAYOUT
  5
26
102
{ACAD_REACTORS
330
1A
102
}
330
1A
100
AcDbPlotSettings
  1

  2
none_device
  4

  6

 40
0.0
 41
0.0
 42
0.0
 43
0.0
 44
0.0
 45
0.0
 46
0.0
 47
0.0
 48
0.0
 49
0.0
140
0.0
141
0.0
142
1.0
143
1.0
 70
   688
 72
     0
 73
     0
 74
     5
  7

 75
    16
 76
     0
 77
     2
 78
   300
147
1.0
148
0.0
149
0.0
100
AcDbLayout
  1
Layout2
 70
     1
 71
     2
 10
0.0
 20
0.0
 11
0.0
 21
0.0
 12
0.0
 22
0.0
 32
0.0
 14
0.0
 24
0.0
 34
0.0
 15
0.0
 25
0.0
 35
0.0
146
0.0
 13
0.0
 23
0.0
 33
0.0
 16
1.0
 26
0.0
 36
0.0
 17
0.0
 27
1.0
 37
0.0
 76
     0
330
23
  0
LAYOUT
  5
22
102
{ACAD_REACTORS
330
1A
102
}
330
1A
100
AcDbPlotSettings
  1

  2
none_device
  4
Letter_(8.50_x_11.00_Inches)
  6

 40
6.35
 41
6.35
 42
6.350005
 43
6.350005
 44
215.9
 45
279.4
 46
0.0
 47
0.0
 48
0.0
 49
0.0
140
0.0
141
0.0
142
1.0
143
1.0
 70
  1712
 72
     0
 73
     0
 74
     0
  7

 75
     0
 76
     0
 77
     2
 78
   300
147
1.0
148
0.0
149
0.0
100
AcDbLayout
  1
Model
 70
     1
 71
     0
 10
-0.5
 20
-0.5
 11
5.0
 21
5.0
 12
0.0
 22
0.0
 32
0.0
 14
-0.5
 24
-0.5
 34
-0.5
 15
5.0
 25
5.0
 35
5.0
146
0.0
 13
0.0
 23
0.0
 33
0.0
 16
1.0
 26
0.0
 36
0.0
 17
0.0
 27
1.0
 37
0.0
 76
     0
330
1F
331
29
  0
MATERIAL
  5
45
102
{ACAD_REACTORS
330
43
102
}
102
{ACAD_XDICTIONARY
360
1F1
102
}
330
43
100
AcDbMaterial
  1
ByBlock
  0
MATERIAL
  5
44
102
{ACAD_REACTORS
330
43
102
}
102
{ACAD_XDICTIONARY
360
1EF
102
}
330
43
100
AcDbMaterial
  1
ByLayer
  0
MATERIAL
  5
46
102
{ACAD_REACTORS
330
43
102
}
102
{ACAD_XDICTIONARY
360
1F3
102
}
330
43
100
AcDbMaterial
  1
Global
  0
MLEADERSTYLE
  5
6C
102
{ACAD_REACTORS
330
6B
102
}
102
{ACAD_XDICTIONARY
360
1F9
102
}
330
6B
100
AcDbMLeaderStyle
170
     2
171
     1
172
     0
 90
        2
 40
0.0
 41
0.0
173
     1
 91
-1056964608
340
14
 92
       -2
290
     1
 42
0.09
291
     1
 43
0.36
  3
Standard
341
0
 44
0.18
300

342
11
174
     1
178
     6
175
     1
176
     0
 93
-1056964608
 45
0.18
292
     0
297
     0
 46
0.18
343
0
 94
-1056964608
 47
1.0
 49
1.0
140
1.0
293
     1
141
0.0
294
     1
177
     0
142
1.0
295
     0
296
     0
143
0.125
1001
ACAD_MLEADERVER
1070
     2
  0
MLINESTYLE
  5
18
102
{ACAD_REACTORS
330
17
102
}
330
17
100
AcDbMlineStyle
  2
Standard
 70
     0
  3

 62
   256
 51
90.0
 52
90.0
 71
     2
 49
0.5
 62
   256
  6
BYLAYER
 49
-0.5
 62
   256
  6
BYLAYER
  0
ACDBPLACEHOLDER
  5
F
102
{ACAD_REACTORS
330
E
102
}
330
E
  0
SCALE
  5
48
102
{ACAD_REACTORS
330
47
102
}
330
47
100
AcDbScale
 70
     0
300
1:1
140
1.0
141
1.0
290
     1
  0
SCALE
  5
49
102
{ACAD_REACTORS
330
47
102
}
330
47
100
AcDbScale
 70
     0
300
1:2
140
1.0
141
2.0
290
     0
  0
SCALE
  5
4A
102
{ACAD_REACTORS
330
47
102
}
330
47
100
AcDbScale
 70
     0
300
1:4
140
1.0
141
4.0
290
     0
  0
SCALE
  5
4B
102
{ACAD_REACTORS
330
47
102
}
330
47
100
AcDbScale
 70
     0
300
1:5
140
1.0
141
5.0
290
     0
  0
SCALE
  5
4C
102
{ACAD_REACTORS
330
47
102
}
330
47
100
AcDbScale
 70
     0
300
1:8
140
1.0
141
8.0
290
     0
  0
SCALE
  5
4D
102
{ACAD_REACTORS
330
47
102
}
330
47
100
AcDbScale
 70
     0
300
1:10
140
1.0
141
10.0
290
     0
  0
SCALE
  5
4E
102
{ACAD_REACTORS
330
47
102
}
330
47
100
AcDbScale
 70
     0
300
1:16
140
1.0
141
16.0
290
     0
  0
SCALE
  5
4F
102
{ACAD_REACTORS
330
47
102
}
330
47
100
AcDbScale
 70
     0
300
1:20
140
1.0
141
20.0
290
     0
  0
SCALE
  5
50
102
{ACAD_REACTORS
330
47
102
}
330
47
100
AcDbScale
 70
     0
300
1:30
140
1.0
141
30.0
290
     0
  0
SCALE
  5
51
102
{ACAD_REACTORS
330
47
102
}
330
47
100
AcDbScale
 70
     0
300
1:40
140
1.0
141
40.0
290
     0
  0
SCALE
  5
52
102
{ACAD_REACTORS
330
47
102
}
330
47
100
AcDbScale
 70
     0
300
1:50
140
1.0
141
50.0
290
     0
  0
SCALE
  5
53
102
{ACAD_REACTORS
330
47
102
}
330
47
100
AcDbScale
 70
     0
300
1:100
140
1.0
141
100.0
290
     0
  0
SCALE
  5
54
102
{ACAD_REACTORS
330
47
102
}
330
47
100
AcDbScale
 70
     0
300
2:1
140
2.0
141
1.0
290
     0
  0
SCALE
  5
55
102
{ACAD_REACTORS
330
47
102
}
330
47
100
AcDbScale
 70
     0
300
4:1
140
4.0
141
1.0
290
     0
  0
SCALE
  5
56
102
{ACAD_REACTORS
330
47
102
}
330
47
100
AcDbScale
 70
     0
300
8:1
140
8.0
141
1.0
290
     0
  0
SCALE
  5
57
102
{ACAD_REACTORS
330
47
102
}
330
47
100
AcDbScale
 70
     0
300
10:1
140
10.0
141
1.0
290
     0
  0
SCALE
  5
58
102
{ACAD_REACTORS
330
47
102
}
330
47
100
AcDbScale
 70
     0
300
100:1
140
100.0
141
1.0
290
     0
  0
SCALE
  5
59
102
{ACAD_REACTORS
330
47
102
}
330
47
100
AcDbScale
 70
     0
300
1/128" = 1'-0"
140
0.007812
141
12.0
290
     0
  0
SCALE
  5
5A
102
{ACAD_REACTORS
330
47
102
}
330
47
100
AcDbScale
 70
     0
300
1/64" = 1'-0"
140
0.015625
141
12.0
290
     0
  0
SCALE
  5
5B
102
{ACAD_REACTORS
330
47
102
}
330
47
100
AcDbScale
 70
     0
300
1/32" = 1'-0"
140
0.03125
141
12.0
290
     0
  0
SCALE
  5
5C
102
{ACAD_REACTORS
330
47
102
}
330
47
100
AcDbScale
 70
     0
300
1/16" = 1'-0"
140
0.0625
141
12.0
290
     0
  0
SCALE
  5
5D
102
{ACAD_REACTORS
330
47
102
}
330
47
100
AcDbScale
 70
     0
300
3/32" = 1'-0"
140
0.09375
141
12.0
290
     0
  0
SCALE
  5
5E
102
{ACAD_REACTORS
330
47
102
}
330
47
100
AcDbScale
 70
     0
300
1/8" = 1'-0"
140
0.125
141
12.0
290
     0
  0
SCALE
  5
5F
102
{ACAD_REACTORS
330
47
102
}
330
47
100
AcDbScale
 70
     0
300
3/16" = 1'-0"
140
0.1875
141
12.0
290
     0
  0
SCALE
  5
60
102
{ACAD_REACTORS
330
47
102
}
330
47
100
AcDbScale
 70
     0
300
1/4" = 1'-0"
140
0.25
141
12.0
290
     0
  0
SCALE
  5
61
102
{ACAD_REACTORS
330
47
102
}
330
47
100
AcDbScale
 70
     0
300
3/8" = 1'-0"
140
0.375
141
12.0
290
     0
  0
SCALE
  5
62
102
{ACAD_REACTORS
330
47
102
}
330
47
100
AcDbScale
 70
     0
300
1/2" = 1'-0"
140
0.5
141
12.0
290
     0
  0
SCALE
  5
63
102
{ACAD_REACTORS
330
47
102
}
330
47
100
AcDbScale
 70
     0
300
3/4" = 1'-0"
140
0.75
141
12.0
290
     0
  0
SCALE
  5
64
102
{ACAD_REACTORS
330
47
102
}
330
47
100
AcDbScale
 70
     0
300
1" = 1'-0"
140
1.0
141
12.0
290
     0
  0
SCALE
  5
65
102
{ACAD_REACTORS
330
47
102
}
330
47
100
AcDbScale
 70
     0
300
1-1/2" = 1'-0"
140
1.5
141
12.0
290
     0
  0
SCALE
  5
66
102
{ACAD_REACTORS
330
47
102
}
330
47
100
AcDbScale
 70
     0
300
3" = 1'-0"
140
3.0
141
12.0
290
     0
  0
SCALE
  5
67
102
{ACAD_REACTORS
330
47
102
}
330
47
100
AcDbScale
 70
     0
300
6" = 1'-0"
140
6.0
141
12.0
290
     0
  0
SCALE
  5
68
102
{ACAD_REACTORS
330
47
102
}
330
47
100
AcDbScale
 70
     0
300
1'-0" = 1'-0"
140
12.0
141
12.0
290
     0
  0
TABLESTYLE
  5
6A
102
{ACAD_REACTORS
330
69
102
}
102
{ACAD_XDICTIONARY
360
1F5
102
}
330
69
100
AcDbTableStyle
  3
Standard
 70
     0
 71
     0
 40
0.06
 41
0.06
280
     0
281
     0
  7
Standard
140
0.18
170
     2
 62
     0
 63
   257
283
     0
274
    -2
284
     1
 64
     0
275
    -2
285
     1
 65
     0
276
    -2
286
     1
 66
     0
277
    -2
287
     1
 67
     0
278
    -2
288
     1
 68
     0
279
    -2
289
     1
 69
     0
  7
Standard
140
0.25
170
     5
 62
     0
 63
   257
283
     0
274
    -2
284
     1
 64
     0
275
    -2
285
     1
 65
     0
276
    -2
286
     1
 66
     0
277
    -2
287
     1
 67
     0
278
    -2
288
     1
 68
     0
279
    -2
289
     1
 69
     0
  7
Standard
140
0.18
170
     5
 62
     0
 63
   257
283
     0
274
    -2
284
     1
 64
     0
275
    -2
285
     1
 65
     0
276
    -2
286
     1
 66
     0
277
    -2
287
     1
 67
     0
278
    -2
288
     1
 68
     0
279
    -2
289
     1
 69
     0
  0
VISUALSTYLE
  5
2F
102
{ACAD_REACTORS
330
2A
102
}
102
{ACAD_XDICTIONARY
360
1C7
102
}
330
2A
100
AcDbVisualStyle
  2
2dWireframe
 70
     4
 71
     0
 72
     2
 73
     0
 90
        0
 40
0.6
 41
30.0
 62
     5
 63
     7
421
 16777215
 74
     1
 91
        4
 64
     7
 65
   257
 75
     1
175
     1
 42
1.0
 92
        0
 66
   257
 43
1.0
 76
     1
 77
     6
 78
     2
 67
     7
 79
     5
170
     0
171
     0
290
     0
174
     0
 93
        1
 44
0.0
173
     0
291
     0
 45
0.0
1001
ACAD
1000
AcDbSavedByObjectVersion
1070
     0
  0
VISUALSTYLE
  5
32
102
{ACAD_REACTORS
330
2A
102
}
102
{ACAD_XDICTIONARY
360
1CD
102
}
330
2A
100
AcDbVisualStyle
  2
Basic
 70
     7
 71
     1
 72
     0
 73
     1
 90
        0
 40
0.6
 41
30.0
 62
     5
 63
     7
421
 16777215
 74
     0
 91
        4
 64
     7
 65
   257
 75
     1
175
     1
 42
1.0
 92
        8
 66
     7
 43
1.0
 76
     1
 77
     6
 78
     2
 67
     7
 79
     5
170
     0
171
     0
290
     0
174
     0
 93
        1
 44
0.0
173
     0
291
     1
 45
0.0
1001
ACAD
1000
AcDbSavedByObjectVersion
1070
     0
  0
VISUALSTYLE
  5
36
102
{ACAD_REACTORS
330
2A
102
}
102
{ACAD_XDICTIONARY
360
1D5
102
}
330
2A
100
AcDbVisualStyle
  2
Brighten
 70
    12
 71
     2
 72
     2
 73
     0
 90
        0
 40
0.6
 41
30.0
 62
     5
 63
     7
421
 16777215
 74
     1
 91
        4
 64
     7
 65
   257
 75
     1
175
     1
 42
1.0
 92
        8
 66
     7
 43
1.0
 76
     1
 77
     6
 78
     2
 67
     7
 79
     5
170
     0
171
     0
290
     0
174
     0
 93
        1
 44
50.0
173
     0
291
     1
 45
0.0
1001
ACAD
1000
AcDbSavedByObjectVersion
1070
     0
  0
VISUALSTYLE
  5
3A
102
{ACAD_REACTORS
330
2A
102
}
102
{ACAD_XDICTIONARY
360
1DD
102
}
330
2A
100
AcDbVisualStyle
  2
ColorChange
 70
    16
 71
     2
 72
     2
 73
     3
 90
        0
 40
0.6
 41
30.0
 62
     5
 63
     8
421
  8421504
 74
     1
 91
        4
 64
     7
 65
   257
 75
     1
175
     1
 42
1.0
 92
        8
 66
     8
424
  8421504
 43
1.0
 76
     1
 77
     6
 78
     2
 67
     7
 79
     5
170
     0
171
     0
290
     0
174
     0
 93
        1
 44
0.0
173
     0
291
     1
 45
0.0
1001
ACAD
1000
AcDbSavedByObjectVersion
1070
     0
  0
VISUALSTYLE
  5
34
102
{ACAD_REACTORS
330
2A
102
}
102
{ACAD_XDICTIONARY
360
1D1
102
}
330
2A
100
AcDbVisualStyle
  2
Conceptual
 70
     9
 71
     3
 72
     2
 73
     0
 90
        0
 40
0.6
 41
30.0
 62
     5
 63
     7
421
 16777215
 74
     2
 91
        2
 64
     7
 65
   257
 75
     1
175
     1
 42
179.0
 92
        8
 66
     7
 43
1.0
 76
     1
 77
     6
 78
     2
 67
     7
 79
     3
170
     0
171
     0
290
     0
174
     0
 93
        1
 44
0.0
173
     0
291
     0
 45
0.0
1001
ACAD
1000
AcDbSavedByObjectVersion
1070
     0
  0
VISUALSTYLE
  5
35
102
{ACAD_REACTORS
330
2A
102
}
102
{ACAD_XDICTIONARY
360
1D3
102
}
330
2A
100
AcDbVisualStyle
  2
Dim
 70
    11
 71
     2
 72
     2
 73
     0
 90
        0
 40
0.6
 41
30.0
 62
     5
 63
     7
421
 16777215
 74
     1
 91
        4
 64
     7
 65
   257
 75
     1
175
     1
 42
1.0
 92
        8
 66
     7
 43
1.0
 76
     1
 77
     6
 78
     2
 67
     7
 79
     5
170
     0
171
     0
290
     0
174
     0
 93
        1
 44
-50.0
173
     0
291
     1
 45
0.0
1001
ACAD
1000
AcDbSavedByObjectVersion
1070
     0
  0
VISUALSTYLE
  5
3D
102
{ACAD_REACTORS
330
2A
102
}
102
{ACAD_XDICTIONARY
360
1E3
102
}
330
2A
100
AcDbVisualStyle
  2
EdgeColorOff
 70
    22
 71
     2
 72
     2
 73
     0
 90
        0
 40
0.6
 41
30.0
 62
     5
 63
     7
421
 16777215
 74
     1
 91
        4
 64
     7
 65
   257
 75
     1
175
     1
 42
1.0
 92
        8
 66
     7
 43
1.0
 76
     1
 77
     6
 78
     2
 67
     7
 79
     5
170
     0
171
     0
290
     0
174
     0
 93
        1
 44
0.0
173
     0
291
     1
 45
0.0
1001
ACAD
1000
AcDbSavedByObjectVersion
1070
     0
  0
VISUALSTYLE
  5
39
102
{ACAD_REACTORS
330
2A
102
}
102
{ACAD_XDICTIONARY
360
1DB
102
}
330
2A
100
AcDbVisualStyle
  2
Facepattern
 70
    15
 71
     2
 72
     2
 73
     0
 90
        0
 40
0.6
 41
30.0
 62
     5
 63
     7
421
 16777215
 74
     1
 91
        4
 64
     7
 65
   257
 75
     1
175
     1
 42
1.0
 92
        8
 66
     7
 43
1.0
 76
     1
 77
     6
 78
     2
 67
     7
 79
     5
170
     0
171
     0
290
     0
174
     0
 93
        1
 44
0.0
173
     0
291
     1
 45
0.0
1001
ACAD
1000
AcDbSavedByObjectVersion
1070
     0
  0
VISUALSTYLE
  5
2B
102
{ACAD_REACTORS
330
2A
102
}
102
{ACAD_XDICTIONARY
360
1BF
102
}
330
2A
100
AcDbVisualStyle
  2
Flat
 70
     0
 71
     2
 72
     1
 73
     1
 90
        2
 40
0.6
 41
30.0
 62
     5
 63
     7
421
 16777215
 74
     0
 91
        0
 64
     7
 65
   257
 75
     1
175
     1
 42
1.0
 92
        8
 66
     7
 43
1.0
 76
     1
 77
     6
 78
     2
 67
     7
 79
     5
170
     0
171
     0
290
     0
174
     0
 93
       13
 44
0.0
173
     0
291
     1
 45
0.0
1001
ACAD
1000
AcDbSavedByObjectVersion
1070
     0
  0
VISUALSTYLE
  5
2C
102
{ACAD_REACTORS
330
2A
102
}
102
{ACAD_XDICTIONARY
360
1C1
102
}
330
2A
100
AcDbVisualStyle
  2
FlatWithEdges
 70
     1
 71
     2
 72
     1
 73
     1
 90
        2
 40
0.6
 41
30.0
 62
     5
 63
     7
421
 16777215
 74
     1
 91
        0
 64
     7
 65
   257
 75
     1
175
     1
 42
1.0
 92
        0
 66
   257
 43
1.0
 76
     1
 77
     6
 78
     2
 67
     7
 79
     5
170
     0
171
     0
290
     0
174
     0
 93
       13
 44
0.0
173
     0
291
     1
 45
0.0
1001
ACAD
1000
AcDbSavedByObjectVersion
1070
     0
  0
VISUALSTYLE
  5
2D
102
{ACAD_REACTORS
330
2A
102
}
102
{ACAD_XDICTIONARY
360
1C3
102
}
330
2A
100
AcDbVisualStyle
  2
Gouraud
 70
     2
 71
     2
 72
     2
 73
     1
 90
        2
 40
0.6
 41
30.0
 62
     5
 63
     7
421
 16777215
 74
     0
 91
        0
 64
     7
 65
   257
 75
     1
175
     1
 42
1.0
 92
        0
 66
     7
 43
1.0
 76
     1
 77
     6
 78
     2
 67
     7
 79
     5
170
     0
171
     0
290
     0
174
     0
 93
       13
 44
0.0
173
     0
291
     1
 45
0.0
1001
ACAD
1000
AcDbSavedByObjectVersion
1070
     0
  0
VISUALSTYLE
  5
2E
102
{ACAD_REACTORS
330
2A
102
}
102
{ACAD_XDICTIONARY
360
1C5
102
}
330
2A
100
AcDbVisualStyle
  2
GouraudWithEdges
 70
     3
 71
     2
 72
     2
 73
     1
 90
        2
 40
0.6
 41
30.0
 62
     5
 63
     7
421
 16777215
 74
     1
 91
        0
 64
     7
 65
   257
 75
     1
175
     1
 42
1.0
 92
        0
 66
   257
 43
1.0
 76
     1
 77
     6
 78
     2
 67
     7
 79
     5
170
     0
171
     0
290
     0
174
     0
 93
       13
 44
0.0
173
     0
291
     1
 45
0.0
1001
ACAD
1000
AcDbSavedByObjectVersion
1070
     0
  0
VISUALSTYLE
  5
31
102
{ACAD_REACTORS
330
2A
102
}
102
{ACAD_XDICTIONARY
360
1CB
102
}
330
2A
100
AcDbVisualStyle
  2
Hidden
 70
     6
 71
     1
 72
     2
 73
     2
 90
        0
 40
0.6
 41
30.0
 62
     5
 63
     7
421
 16777215
 74
     2
 91
        2
 64
     7
 65
   257
 75
     2
175
     1
 42
40.0
 92
        0
 66
   257
 43
1.0
 76
     1
 77
     6
 78
     2
 67
     7
 79
     3
170
     0
171
     0
290
     0
174
     0
 93
        1
 44
0.0
173
     0
291
     0
 45
0.0
1001
ACAD
1000
AcDbSavedByObjectVersion
1070
     0
  0
VISUALSTYLE
  5
3B
102
{ACAD_REACTORS
330
2A
102
}
102
{ACAD_XDICTIONARY
360
1DF
102
}
330
2A
100
AcDbVisualStyle
  2
JitterOff
 70
    20
 71
     2
 72
     2
 73
     0
 90
        0
 40
0.6
 41
30.0
 62
     5
 63
     7
421
 16777215
 74
     1
 91
        4
 64
     7
 65
   257
 75
     1
175
     1
 42
1.0
 92
       10
 66
     7
 43
1.0
 76
     1
 77
     6
 78
     2
 67
     7
 79
     5
170
     0
171
     0
290
     0
174
     0
 93
        1
 44
0.0
173
     0
291
     1
 45
0.0
1001
ACAD
1000
AcDbSavedByObjectVersion
1070
     0
  0
VISUALSTYLE
  5
38
102
{ACAD_REACTORS
330
2A
102
}
102
{ACAD_XDICTIONARY
360
1D9
102
}
330
2A
100
AcDbVisualStyle
  2
Linepattern
 70
    14
 71
     2
 72
     2
 73
     0
 90
        0
 40
0.6
 41
30.0
 62
     5
 63
     7
421
 16777215
 74
     1
 91
        4
 64
     7
 65
   257
 75
     7
175
     7
 42
1.0
 92
        8
 66
     7
 43
1.0
 76
     1
 77
     6
 78
     2
 67
     7
 79
     5
170
     0
171
     0
290
     0
174
     0
 93
        1
 44
0.0
173
     0
291
     1
 45
0.0
1001
ACAD
1000
AcDbSavedByObjectVersion
1070
     0
  0
VISUALSTYLE
  5
3C
102
{ACAD_REACTORS
330
2A
102
}
102
{ACAD_XDICTIONARY
360
1E1
102
}
330
2A
100
AcDbVisualStyle
  2
OverhangOff
 70
    21
 71
     2
 72
     2
 73
     0
 90
        0
 40
0.6
 41
30.0
 62
     5
 63
     7
421
 16777215
 74
     1
 91
        4
 64
     7
 65
   257
 75
     1
175
     1
 42
1.0
 92
        9
 66
     7
 43
1.0
 76
     1
 77
     6
 78
     2
 67
     7
 79
     5
170
     0
171
     0
290
     0
174
     0
 93
        1
 44
0.0
173
     0
291
     1
 45
0.0
1001
ACAD
1000
AcDbSavedByObjectVersion
1070
     0
  0
VISUALSTYLE
  5
33
102
{ACAD_REACTORS
330
2A
102
}
102
{ACAD_XDICTIONARY
360
1CF
102
}
330
2A
100
AcDbVisualStyle
  2
Realistic
 70
     8
 71
     2
 72
     3
 73
     0
 90
        2
 40
0.6
 41
30.0
 62
     5
 63
     7
421
 16777215
 74
     0
 91
        0
 64
     7
 65
   257
 75
     1
175
     1
 42
1.0
 92
        8
 66
   257
 43
1.0
 76
     1
 77
     6
 78
     2
 67
     7
 79
     3
170
     0
171
     0
290
     0
174
     0
 93
       13
 44
0.0
173
     0
291
     0
 45
0.0
1001
ACAD
1000
AcDbSavedByObjectVersion
1070
     0
  0
VISUALSTYLE
  5
42
102
{ACAD_REACTORS
330
2A
102
}
102
{ACAD_XDICTIONARY
360
1ED
102
}
330
2A
100
AcDbVisualStyle
  2
Shaded
 70
    27
 71
     2
 72
     2
 73
     1
 90
        2
 40
0.6
 41
30.0
 62
     5
 63
     7
421
 16777215
 74
     0
 91
        4
 64
     7
 65
   257
 75
     1
175
     1
 42
1.0
 92
        8
 66
   257
 43
1.0
 76
     1
 77
     6
 78
     2
 67
     8
425
  7895160
 79
     3
170
     0
171
     0
290
     0
174
     0
 93
        5
 44
0.0
173
     0
291
     0
 45
0.0
1001
ACAD
1000
AcDbSavedByObjectVersion
1070
     0
  0
VISUALSTYLE
  5
41
102
{ACAD_REACTORS
330
2A
102
}
102
{ACAD_XDICTIONARY
360
1EB
102
}
330
2A
100
AcDbVisualStyle
  2
Shaded with edges
 70
    26
 71
     2
 72
     2
 73
     1
 90
        2
 40
0.6
 41
30.0
 62
     5
 63
     7
421
 16777215
 74
     1
 91
       10
 64
     7
 65
   257
 75
     2
175
     1
 42
1.0
 92
        8
 66
   257
 43
1.0
 76
     1
 77
     6
 78
     2
 67
     7
 79
     3
170
     0
171
     0
290
     0
174
     0
 93
        5
 44
0.0
173
     0
291
     0
 45
0.0
1001
ACAD
1000
AcDbSavedByObjectVersion
1070
     0
  0
VISUALSTYLE
  5
3E
102
{ACAD_REACTORS
330
2A
102
}
102
{ACAD_XDICTIONARY
360
1E5
102
}
330
2A
100
AcDbVisualStyle
  2
Shades of Gray
 70
    23
 71
     2
 72
     2
 73
     3
 90
        0
 40
0.6
 41
30.0
 62
     5
 63
     7
421
 16777215
 74
     2
 91
        2
 64
     7
 65
     7
 75
     1
175
     1
 42
40.0
 92
        8
 66
     7
 43
1.0
 76
     1
 77
     6
 78
     2
 67
     7
 79
     3
170
     0
171
     0
290
     0
174
     0
 93
        1
 44
0.0
173
     0
291
     0
 45
0.0
1001
ACAD
1000
AcDbSavedByObjectVersion
1070
     0
  0
VISUALSTYLE
  5
3F
102
{ACAD_REACTORS
330
2A
102
}
102
{ACAD_XDICTIONARY
360
1E7
102
}
330
2A
100
AcDbVisualStyle
  2
Sketchy
 70
    24
 71
     1
 72
     2
 73
     2
 90
        0
 40
0.6
 41
30.0
 62
     5
 63
     7
421
 16777215
 74
     2
 91
        2
 64
     7
 65
     7
 75
     1
175
     1
 42
40.0
 92
       11
 66
     7
 43
1.0
 76
     1
 77
     6
 78
     2
 67
     7
 79
     6
170
     0
171
     0
290
     0
174
     0
 93
        1
 44
0.0
173
     0
291
     0
 45
0.0
1001
ACAD
1000
AcDbSavedByObjectVersion
1070
     0
  0
VISUALSTYLE
  5
37
102
{ACAD_REACTORS
330
2A
102
}
102
{ACAD_XDICTIONARY
360
1D7
102
}
330
2A
100
AcDbVisualStyle
  2
Thicken
 70
    13
 71
     2
 72
     2
 73
     0
 90
        0
 40
0.6
 41
30.0
 62
     5
 63
     7
421
 16777215
 74
     1
 91
        4
 64
     7
 65
   257
 75
     1
175
     1
 42
1.0
 92
       12
 66
     7
 43
1.0
 76
     1
 77
     6
 78
     2
 67
     7
 79
     5
170
     0
171
     0
290
     0
174
     0
 93
        1
 44
0.0
173
     0
291
     1
 45
0.0
1001
ACAD
1000
AcDbSavedByObjectVersion
1070
     0
  0
VISUALSTYLE
  5
30
102
{ACAD_REACTORS
330
2A
102
}
102
{ACAD_XDICTIONARY
360
1C9
102
}
330
2A
100
AcDbVisualStyle
  2
Wireframe
 70
     5
 71
     0
 72
     2
 73
     0
 90
        0
 40
0.6
 41
30.0
 62
     5
 63
     7
421
 16777215
 74
     1
 91
        4
 64
     7
 65
   257
 75
     1
175
     1
 42
1.0
 92
        0
 66
   257
 43
1.0
 76
     1
 77
     6
 78
     2
 67
     7
 79
     3
170
     0
171
     0
290
     0
174
     0
 93
        1
 44
0.0
173
     0
291
     0
 45
0.0
1001
ACAD
1000
AcDbSavedByObjectVersion
1070
     0
  0
VISUALSTYLE
  5
40
102
{ACAD_REACTORS
330
2A
102
}
102
{ACAD_XDICTIONARY
360
1E9
102
}
330
2A
100
AcDbVisualStyle
  2
X-Ray
 70
    25
 71
     2
 72
     2
 73
     1
 90
        1
 40
0.5
 41
30.0
 62
     5
 63
     7
421
 16777215
 74
     1
 91
        0
 64
     7
 65
   257
 75
     1
175
     1
 42
1.0
 92
        8
 66
     7
 43
1.0
 76
     1
 77
     6
 78
     2
 67
     7
 79
     3
170
     0
171
     0
290
     0
174
     0
 93
       13
 44
0.0
173
     0
291
     0
 45
0.0
1001
ACAD
1000
AcDbSavedByObjectVersion
1070
     0
  0
DICTIONARYVAR
  5
1BC
102
{ACAD_REACTORS
330
1BB
102
}
330
1BB
100
DictionaryVariables
280
     0
  1
1:1
  0
DICTIONARYVAR
  5
1FD
102
{ACAD_REACTORS
330
1BB
102
}
330
1BB
100
DictionaryVariables
280
     0
  1
Standard
  0
DICTIONARYVAR
  5
1FC
102
{ACAD_REACTORS
330
1BB
102
}
330
1BB
100
DictionaryVariables
280
     0
  1
Standard
  0
DICTIONARYVAR
  5
1BD
102
{ACAD_REACTORS
330
1BB
102
}
330
1BB
100
DictionaryVariables
280
     0
  1
1
  0
DICTIONARYVAR
  5
1BE
102
{ACAD_REACTORS
330
1BB
102
}
330
1BB
100
DictionaryVariables
280
     0
  1
2
  0
DICTIONARY
  5
1F1
330
45
100
AcDbDictionary
280
     1
281
     1
  3
ACAD_XREC_ROUNDTRIP
360
1F2
  0
DICTIONARY
  5
1EF
330
44
100
AcDbDictionary
280
     1
281
     1
  3
ACAD_XREC_ROUNDTRIP
360
1F0
  0
DICTIONARY
  5
1F3
330
46
100
AcDbDictionary
280
     1
281
     1
  3
ACAD_XREC_ROUNDTRIP
360
1F4
  0
DICTIONARY
  5
1F9
330
6C
100
AcDbDictionary
280
     1
281
     1
  3
ACAD_XREC_ROUNDTRIP
360
1FA
  0
DICTIONARY
  5
1F5
330
6A
100
AcDbDictionary
280
     1
281
     1
  3
ACAD_ROUNDTRIP_2008_TABLESTYLE_CELLSTYLEMAP
360
1F7
  3
ACAD_XREC_ROUNDTRIP
360
1F6
  0
DICTIONARY
  5
1C7
330
2F
100
AcDbDictionary
280
     1
281
     1
  3
ACAD_XREC_ROUNDTRIP
360
1C8
  0
DICTIONARY
  5
1CD
330
32
100
AcDbDictionary
280
     1
281
     1
  3
ACAD_XREC_ROUNDTRIP
360
1CE
  0
DICTIONARY
  5
1D5
330
36
100
AcDbDictionary
280
     1
281
     1
  3
ACAD_XREC_ROUNDTRIP
360
1D6
  0
DICTIONARY
  5
1DD
330
3A
100
AcDbDictionary
280
     1
281
     1
  3
ACAD_XREC_ROUNDTRIP
360
1DE
  0
DICTIONARY
  5
1D1
330
34
100
AcDbDictionary
280
     1
281
     1
  3
ACAD_XREC_ROUNDTRIP
360
1D2
  0
DICTIONARY
  5
1D3
330
35
100
AcDbDictionary
280
     1
281
     1
  3
ACAD_XREC_ROUNDTRIP
360
1D4
  0
DICTIONARY
  5
1E3
330
3D
100
AcDbDictionary
280
     1
281
     1
  3
ACAD_XREC_ROUNDTRIP
360
1E4
  0
DICTIONARY
  5
1DB
330
39
100
AcDbDictionary
280
     1
281
     1
  3
ACAD_XREC_ROUNDTRIP
360
1DC
  0
DICTIONARY
  5
1BF
330
2B
100
AcDbDictionary
280
     1
281
     1
  3
ACAD_XREC_ROUNDTRIP
360
1C0
  0
DICTIONARY
  5
1C1
330
2C
100
AcDbDictionary
280
     1
281
     1
  3
ACAD_XREC_ROUNDTRIP
360
1C2
  0
DICTIONARY
  5
1C3
330
2D
100
AcDbDictionary
280
     1
281
     1
  3
ACAD_XREC_ROUNDTRIP
360
1C4
  0
DICTIONARY
  5
1C5
330
2E
100
AcDbDictionary
280
     1
281
     1
  3
ACAD_XREC_ROUNDTRIP
360
1C6
  0
DICTIONARY
  5
1CB
330
31
100
AcDbDictionary
280
     1
281
     1
  3
ACAD_XREC_ROUNDTRIP
360
1CC
  0
DICTIONARY
  5
1DF
330
3B
100
AcDbDictionary
280
     1
281
     1
  3
ACAD_XREC_ROUNDTRIP
360
1E0
  0
DICTIONARY
  5
1D9
330
38
100
AcDbDictionary
280
     1
281
     1
  3
ACAD_XREC_ROUNDTRIP
360
1DA
  0
DICTIONARY
  5
1E1
330
3C
100
AcDbDictionary
280
     1
281
     1
  3
ACAD_XREC_ROUNDTRIP
360
1E2
  0
DICTIONARY
  5
1CF
330
33
100
AcDbDictionary
280
     1
281
     1
  3
ACAD_XREC_ROUNDTRIP
360
1D0
  0
DICTIONARY
  5
1ED
330
42
100
AcDbDictionary
280
     1
281
     1
  3
ACAD_XREC_ROUNDTRIP
360
1EE
  0
DICTIONARY
  5
1EB
330
41
100
AcDbDictionary
280
     1
281
     1
  3
ACAD_XREC_ROUNDTRIP
360
1EC
  0
DICTIONARY
  5
1E5
330
3E
100
AcDbDictionary
280
     1
281
     1
  3
ACAD_XREC_ROUNDTRIP
360
1E6
  0
DICTIONARY
  5
1E7
330
3F
100
AcDbDictionary
280
     1
281
     1
  3
ACAD_XREC_ROUNDTRIP
360
1E8
  0
DICTIONARY
  5
1D7
330
37
100
AcDbDictionary
280
     1
281
     1
  3
ACAD_XREC_ROUNDTRIP
360
1D8
  0
DICTIONARY
  5
1C9
330
30
100
AcDbDictionary
280
     1
281
     1
  3
ACAD_XREC_ROUNDTRIP
360
1CA
  0
DICTIONARY
  5
1E9
330
40
100
AcDbDictionary
280
     1
281
     1
  3
ACAD_XREC_ROUNDTRIP
360
1EA
  0
XRECORD
  5
1F2
102
{ACAD_REACTORS
330
1F1
102
}
330
1F1
100
AcDbXrecord
280
     1
102
MATERIAL
148
0.0
149
0.0
149
0.0
 93
        0
 94
      127
282
     0
 72
     1
 77
     1
171
     1
175
     1
179
     1
273
     0
  0
XRECORD
  5
1F0
102
{ACAD_REACTORS
330
1EF
102
}
330
1EF
100
AcDbXrecord
280
     1
102
MATERIAL
148
0.0
149
0.0
149
0.0
 93
        0
 94
      127
282
     0
 72
     1
 77
     1
171
     1
175
     1
179
     1
273
     0
  0
XRECORD
  5
1F4
102
{ACAD_REACTORS
330
1F3
102
}
330
1F3
100
AcDbXrecord
280
     1
102
MATERIAL
148
0.0
149
0.0
149
0.0
 93
        0
 94
      127
282
     0
 72
     1
 77
     1
171
     1
175
     1
179
     1
273
     0
  0
XRECORD
  5
1FA
102
{ACAD_REACTORS
330
1F9
102
}
330
1F9
100
AcDbXrecord
280
     1
102
ACAD_ROUNDTRIP_2010_MLEADER_STYLE
  0
CELLSTYLEMAP
  5
1F7
102
{ACAD_REACTORS
330
1F5
102
}
330
1F5
100
AcDbCellStyleMap
 90
        3
300
CELLSTYLE
  1
TABLEFORMAT_BEGIN
 90
        5
170
     1
 91
        0
 92
    32768
 62
   257
 93
        1
300
CONTENTFORMAT
  1
CONTENTFORMAT_BEGIN
 90
        0
 91
        0
 92
        4
 93
        0
300

 40
0.0
140
1.0
 94
        5
 62
     0
340
11
144
0.25
309
CONTENTFORMAT_END
171
     1
301
MARGIN
  1
CELLMARGIN_BEGIN
 40
0.06
 40
0.06
 40
0.06
 40
0.06
 40
0.06
 40
0.06
309
CELLMARGIN_END
 94
        6
 95
        1
302
GRIDFORMAT
  1
GRIDFORMAT_BEGIN
 90
        0
 91
        1
 62
     0
 92
       -2
340
14
 93
        0
 40
0.045
309
GRIDFORMAT_END
 95
        2
302
GRIDFORMAT
  1
GRIDFORMAT_BEGIN
 90
        0
 91
        1
 62
     0
 92
       -2
340
14
 93
        0
 40
0.045
309
GRIDFORMAT_END
 95
        4
302
GRIDFORMAT
  1
GRIDFORMAT_BEGIN
 90
        0
 91
        1
 62
     0
 92
       -2
340
14
 93
        0
 40
0.045
309
GRIDFORMAT_END
 95
        8
302
GRIDFORMAT
  1
GRIDFORMAT_BEGIN
 90
        0
 91
        1
 62
     0
 92
       -2
340
14
 93
        0
 40
0.045
309
GRIDFORMAT_END
 95
       16
302
GRIDFORMAT
  1
GRIDFORMAT_BEGIN
 90
        0
 91
        1
 62
     0
 92
       -2
340
14
 93
        0
 40
0.045
309
GRIDFORMAT_END
 95
       32
302
GRIDFORMAT
  1
GRIDFORMAT_BEGIN
 90
        0
 91
        1
 62
     0
 92
       -2
340
14
 93
        0
 40
0.045
309
GRIDFORMAT_END
309
TABLEFORMAT_END
  1
CELLSTYLE_BEGIN
 90
        1
 91
        1
300
_TITLE
309
CELLSTYLE_END
300
CELLSTYLE
  1
TABLEFORMAT_BEGIN
 90
        5
170
     1
 91
        0
 92
        0
 62
   257
 93
        1
300
CONTENTFORMAT
  1
CONTENTFORMAT_BEGIN
 90
        0
 91
        0
 92
        4
 93
        0
300

 40
0.0
140
1.0
 94
        5
 62
     0
340
11
144
0.18
309
CONTENTFORMAT_END
171
     1
301
MARGIN
  1
CELLMARGIN_BEGIN
 40
0.06
 40
0.06
 40
0.06
 40
0.06
 40
0.06
 40
0.06
309
CELLMARGIN_END
 94
        6
 95
        1
302
GRIDFORMAT
  1
GRIDFORMAT_BEGIN
 90
        0
 91
        1
 62
     0
 92
       -2
340
14
 93
        0
 40
0.045
309
GRIDFORMAT_END
 95
        2
302
GRIDFORMAT
  1
GRIDFORMAT_BEGIN
 90
        0
 91
        1
 62
     0
 92
       -2
340
14
 93
        0
 40
0.045
309
GRIDFORMAT_END
 95
        4
302
GRIDFORMAT
  1
GRIDFORMAT_BEGIN
 90
        0
 91
        1
 62
     0
 92
       -2
340
14
 93
        0
 40
0.045
309
GRIDFORMAT_END
 95
        8
302
GRIDFORMAT
  1
GRIDFORMAT_BEGIN
 90
        0
 91
        1
 62
     0
 92
       -2
340
14
 93
        0
 40
0.045
309
GRIDFORMAT_END
 95
       16
302
GRIDFORMAT
  1
GRIDFORMAT_BEGIN
 90
        0
 91
        1
 62
     0
 92
       -2
340
14
 93
        0
 40
0.045
309
GRIDFORMAT_END
 95
       32
302
GRIDFORMAT
  1
GRIDFORMAT_BEGIN
 90
        0
 91
        1
 62
     0
 92
       -2
340
14
 93
        0
 40
0.045
309
GRIDFORMAT_END
309
TABLEFORMAT_END
  1
CELLSTYLE_BEGIN
 90
        2
 91
        1
300
_HEADER
309
CELLSTYLE_END
300
CELLSTYLE
  1
TABLEFORMAT_BEGIN
 90
        5
170
     1
 91
        0
 92
        0
 62
   257
 93
        1
300
CONTENTFORMAT
  1
CONTENTFORMAT_BEGIN
 90
        0
 91
        0
 92
        4
 93
        0
300

 40
0.0
140
1.0
 94
        2
 62
     0
340
11
144
0.18
309
CONTENTFORMAT_END
171
     1
301
MARGIN
  1
CELLMARGIN_BEGIN
 40
0.06
 40
0.06
 40
0.06
 40
0.06
 40
0.06
 40
0.06
309
CELLMARGIN_END
 94
        6
 95
        1
302
GRIDFORMAT
  1
GRIDFORMAT_BEGIN
 90
        0
 91
        1
 62
     0
 92
       -2
340
14
 93
        0
 40
0.045
309
GRIDFORMAT_END
 95
        2
302
GRIDFORMAT
  1
GRIDFORMAT_BEGIN
 90
        0
 91
        1
 62
     0
 92
       -2
340
14
 93
        0
 40
0.045
309
GRIDFORMAT_END
 95
        4
302
GRIDFORMAT
  1
GRIDFORMAT_BEGIN
 90
        0
 91
        1
 62
     0
 92
       -2
340
14
 93
        0
 40
0.045
309
GRIDFORMAT_END
 95
        8
302
GRIDFORMAT
  1
GRIDFORMAT_BEGIN
 90
        0
 91
        1
 62
     0
 92
       -2
340
14
 93
        0
 40
0.045
309
GRIDFORMAT_END
 95
       16
302
GRIDFORMAT
  1
GRIDFORMAT_BEGIN
 90
        0
 91
        1
 62
     0
 92
       -2
340
14
 93
        0
 40
0.045
309
GRIDFORMAT_END
 95
       32
302
GRIDFORMAT
  1
GRIDFORMAT_BEGIN
 90
        0
 91
        1
 62
     0
 92
       -2
340
14
 93
        0
 40
0.045
309
GRIDFORMAT_END
309
TABLEFORMAT_END
  1
CELLSTYLE_BEGIN
 90
        3
 91
        2
300
_DATA
309
CELLSTYLE_END
  0
XRECORD
  5
1F6
102
{ACAD_REACTORS
330
1F5
102
}
330
1F5
100
AcDbXrecord
280
     1
102
ACAD_ROUNDTRIP_PRE2007_TABLESTYLE
 90
        4
 91
        0
  1

 92
        4
 93
        0
  2

 94
        4
 95
        0
  3

  0
XRECORD
  5
1C8
102
{ACAD_REACTORS
330
1C7
102
}
330
1C7
100
AcDbXrecord
280
     1
102
RTVSPropertyOp0
 70
     1
102
RTVSPropertyOp1
 70
     1
102
RTVSPropertyOp2
 70
     1
102
RTVSPropertyOp3
 70
     1
102
RTVSPropertyOp4
 70
     1
102
RTVSPropertyOp5
 70
     1
102
RTVSPropertyOp6
 70
     1
102
RTVSPropertyOp7
 70
     1
102
RTVSPropertyOp8
 70
     1
102
RTVSPropertyOp9
 70
     1
102
RTVSPropertyOp10
 70
     1
102
RTVSPropertyOp11
 70
     1
102
RTVSPropertyOp12
 70
     1
102
RTVSPropertyOp13
 70
     1
102
RTVSPropertyOp14
 70
     1
102
RTVSPropertyOp15
 70
     1
102
RTVSPropertyOp16
 70
     1
102
RTVSPropertyOp17
 70
     1
102
RTVSPropertyOp18
 70
     1
102
RTVSPropertyOp19
 70
     1
102
RTVSPropertyOp20
 70
     1
102
RTVSPropertyOp21
 70
     1
102
RTVSPropertyOp22
 70
     1
102
RTVSPropertyOp23
 70
     1
102
RTVSPropertyOp24
 70
     1
102
RTVSPropertyOp25
 70
     1
102
RTVSPropertyOp26
 70
     1
102
RTVSPropertyOp27
 70
     1
102
RTVSPropertyOp28
 70
     1
102
RTVSPropertyOp29
 70
     1
102
RTVSPropertyOp30
 70
     1
102
RTVSPropertyOp31
 70
     1
102
RTVSPropertyOp32
 70
     1
102
RTVSPropertyOp33
 70
     1
102
RTVSPropertyOp34
 70
     1
102
RTVSPropertyOp35
 70
     1
102
RTVSPropertyOp36
 70
     1
102
RTVSPropertyOp37
 70
     1
102
RTVSPropertyOp38
 70
     1
102
RTVSPropertyOp39
 70
     1
102
RTVSPropertyOp40
 70
     1
102
RTVSPropertyOp41
 70
     1
102
RTVSPropertyOp42
 70
     1
102
RTVSPropertyOp43
 70
     1
102
RTVSPropertyOp44
 70
     1
102
RTVSPropertyOp45
 70
     1
102
RTVSPropertyOp46
 70
     1
102
RTVSPropertyOp47
 70
     1
102
RTVSPropertyOp48
 70
     1
102
RTVSPropertyOp49
 70
     1
102
RTVSPropertyOp50
 70
     1
102
RTVSPropertyOp51
 70
     0
102
RTVSPropertyOp52
 70
     0
102
RTVSPropertyOp53
 70
     1
102
RTVSPropertyOp54
 70
     1
102
RTVSPropertyOp55
 70
     1
102
RTVSPropertyOp56
 70
     1
102
RTVSPropertyOp57
 70
     1
102
RTVSPost2010Prop28
280
     1
102
RTVSPost2010PropOp28
 70
     1
102
RTVSPost2010Prop29
280
     1
102
RTVSPost2010PropOp29
 70
     1
102
RTVSPost2010Prop30
280
     0
102
RTVSPost2010PropOp30
 70
     1
102
RTVSPost2010Prop31
280
     0
102
RTVSPost2010PropOp31
 70
     1
102
RTVSPost2010Prop32
280
     0
102
RTVSPost2010PropOp32
 70
     1
102
RTVSPost2010Prop33
280
     0
102
RTVSPost2010PropOp33
 70
     1
102
RTVSPost2010Prop34
280
     0
102
RTVSPost2010PropOp34
 70
     1
102
RTVSPost2010Prop35
280
     0
102
RTVSPost2010PropOp35
 70
     1
102
RTVSPost2010Prop36
280
     0
102
RTVSPost2010PropOp36
 70
     1
102
RTVSPost2010Prop37
 90
       50
102
RTVSPost2010PropOp37
 70
     1
102
RTVSPost2010Prop38
140
0.0
102
RTVSPost2010PropOp38
 70
     1
102
RTVSPost2010Prop39
140
1.0
102
RTVSPost2010PropOp39
 70
     1
102
RTVSPost2010Prop40
 90
        0
102
RTVSPost2010PropOp40
 70
     1
102
RTVSPost2010Prop41ColorIndex
 90
       18
102
RTVSPost2010Prop41ColorRGB
 90
        0
102
RTVSPost2010PropOp41
 70
     1
102
RTVSPost2010Prop42
 90
       50
102
RTVSPost2010PropOp42
 70
     1
102
RTVSPost2010Prop43
 90
        3
102
RTVSPost2010PropOp43
 70
     1
102
RTVSPost2010Prop44ColorIndex
 90
        5
102
RTVSPost2010Prop44ColorRGB
 90
      255
102
RTVSPost2010PropOp44
 70
     1
102
RTVSPost2010Prop45
280
     0
102
RTVSPost2010PropOp45
 70
     1
102
RTVSPost2010Prop46
 90
       50
102
RTVSPost2010PropOp46
 70
     1
102
RTVSPost2010Prop47
 90
       50
102
RTVSPost2010PropOp47
 70
     1
102
RTVSPost2010Prop48
 90
       50
102
RTVSPost2010PropOp48
 70
     1
102
RTVSPost2010Prop49
280
     0
102
RTVSPost2010PropOp49
 70
     1
102
RTVSPost2010Prop50
 90
       50
102
RTVSPost2010PropOp50
 70
     1
102
RTVSPost2010Prop51ColorIndex
 90
      256
102
RTVSPost2010Prop51ColorRGB
 90
-16777216
102
RTVSPost2010PropOp51
 70
     0
102
RTVSPost2010Prop52
140
1.0
102
RTVSPost2010PropOp52
 70
     0
102
RTVSPost2010Prop53
 90
        2
102
RTVSPost2010PropOp53
 70
     1
102
RTVSPost2010Prop54
  1
strokes_ogs.tif
102
RTVSPost2010PropOp54
 70
     1
102
RTVSPost2010Prop55
280
     0
102
RTVSPost2010PropOp55
 70
     1
102
RTVSPost2010Prop56
140
1.0
102
RTVSPost2010PropOp56
 70
     1
102
RTVSPost2010Prop57
140
1.0
102
RTVSPost2010PropOp57
 70
     1
  0
XRECORD
  5
1CE
102
{ACAD_REACTORS
330
1CD
102
}
330
1CD
100
AcDbXrecord
280
     1
102
RTVSPropertyOp0
 70
     1
102
RTVSPropertyOp1
 70
     1
102
RTVSPropertyOp2
 70
     1
102
RTVSPropertyOp3
 70
     1
102
RTVSPropertyOp4
 70
     1
102
RTVSPropertyOp5
 70
     1
102
RTVSPropertyOp6
 70
     1
102
RTVSPropertyOp7
 70
     1
102
RTVSPropertyOp8
 70
     1
102
RTVSPropertyOp9
 70
     1
102
RTVSPropertyOp10
 70
     1
102
RTVSPropertyOp11
 70
     1
102
RTVSPropertyOp12
 70
     1
102
RTVSPropertyOp13
 70
     1
102
RTVSPropertyOp14
 70
     1
102
RTVSPropertyOp15
 70
     1
102
RTVSPropertyOp16
 70
     1
102
RTVSPropertyOp17
 70
     1
102
RTVSPropertyOp18
 70
     1
102
RTVSPropertyOp19
 70
     1
102
RTVSPropertyOp20
 70
     1
102
RTVSPropertyOp21
 70
     1
102
RTVSPropertyOp22
 70
     1
102
RTVSPropertyOp23
 70
     1
102
RTVSPropertyOp24
 70
     1
102
RTVSPropertyOp25
 70
     1
102
RTVSPropertyOp26
 70
     1
102
RTVSPropertyOp27
 70
     1
102
RTVSPropertyOp28
 70
     1
102
RTVSPropertyOp29
 70
     1
102
RTVSPropertyOp30
 70
     1
102
RTVSPropertyOp31
 70
     1
102
RTVSPropertyOp32
 70
     1
102
RTVSPropertyOp33
 70
     1
102
RTVSPropertyOp34
 70
     1
102
RTVSPropertyOp35
 70
     1
102
RTVSPropertyOp36
 70
     1
102
RTVSPropertyOp37
 70
     1
102
RTVSPropertyOp38
 70
     1
102
RTVSPropertyOp39
 70
     1
102
RTVSPropertyOp40
 70
     1
102
RTVSPropertyOp41
 70
     1
102
RTVSPropertyOp42
 70
     1
102
RTVSPropertyOp43
 70
     1
102
RTVSPropertyOp44
 70
     1
102
RTVSPropertyOp45
 70
     1
102
RTVSPropertyOp46
 70
     1
102
RTVSPropertyOp47
 70
     1
102
RTVSPropertyOp48
 70
     1
102
RTVSPropertyOp49
 70
     1
102
RTVSPropertyOp50
 70
     1
102
RTVSPropertyOp51
 70
     0
102
RTVSPropertyOp52
 70
     0
102
RTVSPropertyOp53
 70
     1
102
RTVSPropertyOp54
 70
     1
102
RTVSPropertyOp55
 70
     1
102
RTVSPropertyOp56
 70
     1
102
RTVSPropertyOp57
 70
     1
102
RTVSPost2010Prop28
280
     0
102
RTVSPost2010PropOp28
 70
     1
102
RTVSPost2010Prop29
280
     1
102
RTVSPost2010PropOp29
 70
     1
102
RTVSPost2010Prop30
280
     1
102
RTVSPost2010PropOp30
 70
     1
102
RTVSPost2010Prop31
280
     0
102
RTVSPost2010PropOp31
 70
     1
102
RTVSPost2010Prop32
280
     0
102
RTVSPost2010PropOp32
 70
     1
102
RTVSPost2010Prop33
280
     0
102
RTVSPost2010PropOp33
 70
     1
102
RTVSPost2010Prop34
280
     0
102
RTVSPost2010PropOp34
 70
     1
102
RTVSPost2010Prop35
280
     0
102
RTVSPost2010PropOp35
 70
     1
102
RTVSPost2010Prop36
280
     0
102
RTVSPost2010PropOp36
 70
     1
102
RTVSPost2010Prop37
 90
       50
102
RTVSPost2010PropOp37
 70
     1
102
RTVSPost2010Prop38
140
0.0
102
RTVSPost2010PropOp38
 70
     1
102
RTVSPost2010Prop39
140
1.0
102
RTVSPost2010PropOp39
 70
     1
102
RTVSPost2010Prop40
 90
        0
102
RTVSPost2010PropOp40
 70
     1
102
RTVSPost2010Prop41ColorIndex
 90
       18
102
RTVSPost2010Prop41ColorRGB
 90
        0
102
RTVSPost2010PropOp41
 70
     1
102
RTVSPost2010Prop42
 90
       50
102
RTVSPost2010PropOp42
 70
     1
102
RTVSPost2010Prop43
 90
        3
102
RTVSPost2010PropOp43
 70
     1
102
RTVSPost2010Prop44ColorIndex
 90
        5
102
RTVSPost2010Prop44ColorRGB
 90
      255
102
RTVSPost2010PropOp44
 70
     1
102
RTVSPost2010Prop45
280
     0
102
RTVSPost2010PropOp45
 70
     1
102
RTVSPost2010Prop46
 90
       50
102
RTVSPost2010PropOp46
 70
     1
102
RTVSPost2010Prop47
 90
       50
102
RTVSPost2010PropOp47
 70
     1
102
RTVSPost2010Prop48
 90
       50
102
RTVSPost2010PropOp48
 70
     1
102
RTVSPost2010Prop49
280
     0
102
RTVSPost2010PropOp49
 70
     1
102
RTVSPost2010Prop50
 90
       50
102
RTVSPost2010PropOp50
 70
     1
102
RTVSPost2010Prop51ColorIndex
 90
      256
102
RTVSPost2010Prop51ColorRGB
 90
-16777216
102
RTVSPost2010PropOp51
 70
     0
102
RTVSPost2010Prop52
140
1.0
102
RTVSPost2010PropOp52
 70
     0
102
RTVSPost2010Prop53
 90
        2
102
RTVSPost2010PropOp53
 70
     1
102
RTVSPost2010Prop54
  1
strokes_ogs.tif
102
RTVSPost2010PropOp54
 70
     1
102
RTVSPost2010Prop55
280
     0
102
RTVSPost2010PropOp55
 70
     1
102
RTVSPost2010Prop56
140
1.0
102
RTVSPost2010PropOp56
 70
     1
102
RTVSPost2010Prop57
140
1.0
102
RTVSPost2010PropOp57
 70
     1
  0
XRECORD
  5
1D6
102
{ACAD_REACTORS
330
1D5
102
}
330
1D5
100
AcDbXrecord
280
     1
102
RTVSPropertyOp0
 70
     1
102
RTVSPropertyOp1
 70
     1
102
RTVSPropertyOp2
 70
     1
102
RTVSPropertyOp3
 70
     1
102
RTVSPropertyOp4
 70
     1
102
RTVSPropertyOp5
 70
     1
102
RTVSPropertyOp6
 70
     1
102
RTVSPropertyOp7
 70
     1
102
RTVSPropertyOp8
 70
     1
102
RTVSPropertyOp9
 70
     1
102
RTVSPropertyOp10
 70
     1
102
RTVSPropertyOp11
 70
     1
102
RTVSPropertyOp12
 70
     1
102
RTVSPropertyOp13
 70
     1
102
RTVSPropertyOp14
 70
     1
102
RTVSPropertyOp15
 70
     1
102
RTVSPropertyOp16
 70
     1
102
RTVSPropertyOp17
 70
     1
102
RTVSPropertyOp18
 70
     1
102
RTVSPropertyOp19
 70
     1
102
RTVSPropertyOp20
 70
     1
102
RTVSPropertyOp21
 70
     1
102
RTVSPropertyOp22
 70
     1
102
RTVSPropertyOp23
 70
     1
102
RTVSPropertyOp24
 70
     1
102
RTVSPropertyOp25
 70
     1
102
RTVSPropertyOp26
 70
     1
102
RTVSPropertyOp27
 70
     1
102
RTVSPropertyOp28
 70
     1
102
RTVSPropertyOp29
 70
     1
102
RTVSPropertyOp30
 70
     1
102
RTVSPropertyOp31
 70
     1
102
RTVSPropertyOp32
 70
     1
102
RTVSPropertyOp33
 70
     1
102
RTVSPropertyOp34
 70
     1
102
RTVSPropertyOp35
 70
     1
102
RTVSPropertyOp36
 70
     1
102
RTVSPropertyOp37
 70
     1
102
RTVSPropertyOp38
 70
     1
102
RTVSPropertyOp39
 70
     1
102
RTVSPropertyOp40
 70
     1
102
RTVSPropertyOp41
 70
     1
102
RTVSPropertyOp42
 70
     1
102
RTVSPropertyOp43
 70
     1
102
RTVSPropertyOp44
 70
     1
102
RTVSPropertyOp45
 70
     1
102
RTVSPropertyOp46
 70
     1
102
RTVSPropertyOp47
 70
     1
102
RTVSPropertyOp48
 70
     1
102
RTVSPropertyOp49
 70
     1
102
RTVSPropertyOp50
 70
     1
102
RTVSPropertyOp51
 70
     0
102
RTVSPropertyOp52
 70
     0
102
RTVSPropertyOp53
 70
     1
102
RTVSPropertyOp54
 70
     1
102
RTVSPropertyOp55
 70
     1
102
RTVSPropertyOp56
 70
     1
102
RTVSPropertyOp57
 70
     1
102
RTVSPost2010Prop28
280
     0
102
RTVSPost2010PropOp28
 70
     1
102
RTVSPost2010Prop29
280
     1
102
RTVSPost2010PropOp29
 70
     1
102
RTVSPost2010Prop30
280
     1
102
RTVSPost2010PropOp30
 70
     1
102
RTVSPost2010Prop31
280
     0
102
RTVSPost2010PropOp31
 70
     1
102
RTVSPost2010Prop32
280
     0
102
RTVSPost2010PropOp32
 70
     1
102
RTVSPost2010Prop33
280
     0
102
RTVSPost2010PropOp33
 70
     1
102
RTVSPost2010Prop34
280
     0
102
RTVSPost2010PropOp34
 70
     1
102
RTVSPost2010Prop35
280
     0
102
RTVSPost2010PropOp35
 70
     1
102
RTVSPost2010Prop36
280
     0
102
RTVSPost2010PropOp36
 70
     1
102
RTVSPost2010Prop37
 90
       50
102
RTVSPost2010PropOp37
 70
     1
102
RTVSPost2010Prop38
140
0.0
102
RTVSPost2010PropOp38
 70
     1
102
RTVSPost2010Prop39
140
1.0
102
RTVSPost2010PropOp39
 70
     1
102
RTVSPost2010Prop40
 90
        0
102
RTVSPost2010PropOp40
 70
     1
102
RTVSPost2010Prop41ColorIndex
 90
       18
102
RTVSPost2010Prop41ColorRGB
 90
        0
102
RTVSPost2010PropOp41
 70
     1
102
RTVSPost2010Prop42
 90
       50
102
RTVSPost2010PropOp42
 70
     1
102
RTVSPost2010Prop43
 90
        3
102
RTVSPost2010PropOp43
 70
     1
102
RTVSPost2010Prop44ColorIndex
 90
        5
102
RTVSPost2010Prop44ColorRGB
 90
      255
102
RTVSPost2010PropOp44
 70
     1
102
RTVSPost2010Prop45
280
     0
102
RTVSPost2010PropOp45
 70
     1
102
RTVSPost2010Prop46
 90
       50
102
RTVSPost2010PropOp46
 70
     1
102
RTVSPost2010Prop47
 90
       50
102
RTVSPost2010PropOp47
 70
     1
102
RTVSPost2010Prop48
 90
       50
102
RTVSPost2010PropOp48
 70
     1
102
RTVSPost2010Prop49
280
     0
102
RTVSPost2010PropOp49
 70
     1
102
RTVSPost2010Prop50
 90
       50
102
RTVSPost2010PropOp50
 70
     1
102
RTVSPost2010Prop51ColorIndex
 90
      256
102
RTVSPost2010Prop51ColorRGB
 90
-16777216
102
RTVSPost2010PropOp51
 70
     0
102
RTVSPost2010Prop52
140
1.0
102
RTVSPost2010PropOp52
 70
     0
102
RTVSPost2010Prop53
 90
        2
102
RTVSPost2010PropOp53
 70
     1
102
RTVSPost2010Prop54
  1
strokes_ogs.tif
102
RTVSPost2010PropOp54
 70
     1
102
RTVSPost2010Prop55
280
     0
102
RTVSPost2010PropOp55
 70
     1
102
RTVSPost2010Prop56
140
1.0
102
RTVSPost2010PropOp56
 70
     1
102
RTVSPost2010Prop57
140
1.0
102
RTVSPost2010PropOp57
 70
     1
  0
XRECORD
  5
1DE
102
{ACAD_REACTORS
330
1DD
102
}
330
1DD
100
AcDbXrecord
280
     1
102
RTVSPropertyOp0
 70
     1
102
RTVSPropertyOp1
 70
     1
102
RTVSPropertyOp2
 70
     1
102
RTVSPropertyOp3
 70
     1
102
RTVSPropertyOp4
 70
     1
102
RTVSPropertyOp5
 70
     1
102
RTVSPropertyOp6
 70
     1
102
RTVSPropertyOp7
 70
     1
102
RTVSPropertyOp8
 70
     1
102
RTVSPropertyOp9
 70
     1
102
RTVSPropertyOp10
 70
     1
102
RTVSPropertyOp11
 70
     1
102
RTVSPropertyOp12
 70
     1
102
RTVSPropertyOp13
 70
     1
102
RTVSPropertyOp14
 70
     1
102
RTVSPropertyOp15
 70
     1
102
RTVSPropertyOp16
 70
     1
102
RTVSPropertyOp17
 70
     1
102
RTVSPropertyOp18
 70
     1
102
RTVSPropertyOp19
 70
     1
102
RTVSPropertyOp20
 70
     1
102
RTVSPropertyOp21
 70
     1
102
RTVSPropertyOp22
 70
     1
102
RTVSPropertyOp23
 70
     1
102
RTVSPropertyOp24
 70
     1
102
RTVSPropertyOp25
 70
     1
102
RTVSPropertyOp26
 70
     1
102
RTVSPropertyOp27
 70
     1
102
RTVSPropertyOp28
 70
     1
102
RTVSPropertyOp29
 70
     1
102
RTVSPropertyOp30
 70
     1
102
RTVSPropertyOp31
 70
     1
102
RTVSPropertyOp32
 70
     1
102
RTVSPropertyOp33
 70
     1
102
RTVSPropertyOp34
 70
     1
102
RTVSPropertyOp35
 70
     1
102
RTVSPropertyOp36
 70
     1
102
RTVSPropertyOp37
 70
     1
102
RTVSPropertyOp38
 70
     1
102
RTVSPropertyOp39
 70
     1
102
RTVSPropertyOp40
 70
     1
102
RTVSPropertyOp41
 70
     1
102
RTVSPropertyOp42
 70
     1
102
RTVSPropertyOp43
 70
     1
102
RTVSPropertyOp44
 70
     1
102
RTVSPropertyOp45
 70
     1
102
RTVSPropertyOp46
 70
     1
102
RTVSPropertyOp47
 70
     1
102
RTVSPropertyOp48
 70
     1
102
RTVSPropertyOp49
 70
     1
102
RTVSPropertyOp50
 70
     1
102
RTVSPropertyOp51
 70
     0
102
RTVSPropertyOp52
 70
     0
102
RTVSPropertyOp53
 70
     1
102
RTVSPropertyOp54
 70
     1
102
RTVSPropertyOp55
 70
     1
102
RTVSPropertyOp56
 70
     1
102
RTVSPropertyOp57
 70
     1
102
RTVSPost2010Prop28
280
     0
102
RTVSPost2010PropOp28
 70
     1
102
RTVSPost2010Prop29
280
     1
102
RTVSPost2010PropOp29
 70
     1
102
RTVSPost2010Prop30
280
     1
102
RTVSPost2010PropOp30
 70
     1
102
RTVSPost2010Prop31
280
     0
102
RTVSPost2010PropOp31
 70
     1
102
RTVSPost2010Prop32
280
     0
102
RTVSPost2010PropOp32
 70
     1
102
RTVSPost2010Prop33
280
     0
102
RTVSPost2010PropOp33
 70
     1
102
RTVSPost2010Prop34
280
     0
102
RTVSPost2010PropOp34
 70
     1
102
RTVSPost2010Prop35
280
     0
102
RTVSPost2010PropOp35
 70
     1
102
RTVSPost2010Prop36
280
     0
102
RTVSPost2010PropOp36
 70
     1
102
RTVSPost2010Prop37
 90
       50
102
RTVSPost2010PropOp37
 70
     1
102
RTVSPost2010Prop38
140
0.0
102
RTVSPost2010PropOp38
 70
     1
102
RTVSPost2010Prop39
140
1.0
102
RTVSPost2010PropOp39
 70
     1
102
RTVSPost2010Prop40
 90
        0
102
RTVSPost2010PropOp40
 70
     1
102
RTVSPost2010Prop41ColorIndex
 90
       18
102
RTVSPost2010Prop41ColorRGB
 90
        0
102
RTVSPost2010PropOp41
 70
     1
102
RTVSPost2010Prop42
 90
       50
102
RTVSPost2010PropOp42
 70
     1
102
RTVSPost2010Prop43
 90
        3
102
RTVSPost2010PropOp43
 70
     1
102
RTVSPost2010Prop44ColorIndex
 90
        5
102
RTVSPost2010Prop44ColorRGB
 90
      255
102
RTVSPost2010PropOp44
 70
     1
102
RTVSPost2010Prop45
280
     0
102
RTVSPost2010PropOp45
 70
     1
102
RTVSPost2010Prop46
 90
       50
102
RTVSPost2010PropOp46
 70
     1
102
RTVSPost2010Prop47
 90
       50
102
RTVSPost2010PropOp47
 70
     1
102
RTVSPost2010Prop48
 90
       50
102
RTVSPost2010PropOp48
 70
     1
102
RTVSPost2010Prop49
280
     0
102
RTVSPost2010PropOp49
 70
     1
102
RTVSPost2010Prop50
 90
       50
102
RTVSPost2010PropOp50
 70
     1
102
RTVSPost2010Prop51ColorIndex
 90
      256
102
RTVSPost2010Prop51ColorRGB
 90
-16777216
102
RTVSPost2010PropOp51
 70
     0
102
RTVSPost2010Prop52
140
1.0
102
RTVSPost2010PropOp52
 70
     0
102
RTVSPost2010Prop53
 90
        2
102
RTVSPost2010PropOp53
 70
     1
102
RTVSPost2010Prop54
  1
strokes_ogs.tif
102
RTVSPost2010PropOp54
 70
     1
102
RTVSPost2010Prop55
280
     0
102
RTVSPost2010PropOp55
 70
     1
102
RTVSPost2010Prop56
140
1.0
102
RTVSPost2010PropOp56
 70
     1
102
RTVSPost2010Prop57
140
1.0
102
RTVSPost2010PropOp57
 70
     1
  0
XRECORD
  5
1D2
102
{ACAD_REACTORS
330
1D1
102
}
330
1D1
100
AcDbXrecord
280
     1
102
RTVSPropertyOp0
 70
     1
102
RTVSPropertyOp1
 70
     1
102
RTVSPropertyOp2
 70
     1
102
RTVSPropertyOp3
 70
     1
102
RTVSPropertyOp4
 70
     1
102
RTVSPropertyOp5
 70
     1
102
RTVSPropertyOp6
 70
     1
102
RTVSPropertyOp7
 70
     1
102
RTVSPropertyOp8
 70
     1
102
RTVSPropertyOp9
 70
     1
102
RTVSPropertyOp10
 70
     1
102
RTVSPropertyOp11
 70
     1
102
RTVSPropertyOp12
 70
     1
102
RTVSPropertyOp13
 70
     1
102
RTVSPropertyOp14
 70
     1
102
RTVSPropertyOp15
 70
     1
102
RTVSPropertyOp16
 70
     1
102
RTVSPropertyOp17
 70
     1
102
RTVSPropertyOp18
 70
     1
102
RTVSPropertyOp19
 70
     1
102
RTVSPropertyOp20
 70
     1
102
RTVSPropertyOp21
 70
     1
102
RTVSPropertyOp22
 70
     1
102
RTVSPropertyOp23
 70
     1
102
RTVSPropertyOp24
 70
     1
102
RTVSPropertyOp25
 70
     1
102
RTVSPropertyOp26
 70
     1
102
RTVSPropertyOp27
 70
     1
102
RTVSPropertyOp28
 70
     1
102
RTVSPropertyOp29
 70
     1
102
RTVSPropertyOp30
 70
     1
102
RTVSPropertyOp31
 70
     1
102
RTVSPropertyOp32
 70
     1
102
RTVSPropertyOp33
 70
     1
102
RTVSPropertyOp34
 70
     1
102
RTVSPropertyOp35
 70
     1
102
RTVSPropertyOp36
 70
     1
102
RTVSPropertyOp37
 70
     1
102
RTVSPropertyOp38
 70
     1
102
RTVSPropertyOp39
 70
     1
102
RTVSPropertyOp40
 70
     1
102
RTVSPropertyOp41
 70
     1
102
RTVSPropertyOp42
 70
     1
102
RTVSPropertyOp43
 70
     1
102
RTVSPropertyOp44
 70
     1
102
RTVSPropertyOp45
 70
     1
102
RTVSPropertyOp46
 70
     1
102
RTVSPropertyOp47
 70
     1
102
RTVSPropertyOp48
 70
     1
102
RTVSPropertyOp49
 70
     1
102
RTVSPropertyOp50
 70
     1
102
RTVSPropertyOp51
 70
     0
102
RTVSPropertyOp52
 70
     0
102
RTVSPropertyOp53
 70
     1
102
RTVSPropertyOp54
 70
     1
102
RTVSPropertyOp55
 70
     1
102
RTVSPropertyOp56
 70
     1
102
RTVSPropertyOp57
 70
     1
102
RTVSPost2010Prop28
280
     0
102
RTVSPost2010PropOp28
 70
     1
102
RTVSPost2010Prop29
280
     1
102
RTVSPost2010PropOp29
 70
     1
102
RTVSPost2010Prop30
280
     1
102
RTVSPost2010PropOp30
 70
     1
102
RTVSPost2010Prop31
280
     0
102
RTVSPost2010PropOp31
 70
     1
102
RTVSPost2010Prop32
280
     0
102
RTVSPost2010PropOp32
 70
     1
102
RTVSPost2010Prop33
280
     0
102
RTVSPost2010PropOp33
 70
     1
102
RTVSPost2010Prop34
280
     0
102
RTVSPost2010PropOp34
 70
     1
102
RTVSPost2010Prop35
280
     0
102
RTVSPost2010PropOp35
 70
     1
102
RTVSPost2010Prop36
280
     0
102
RTVSPost2010PropOp36
 70
     1
102
RTVSPost2010Prop37
 90
       50
102
RTVSPost2010PropOp37
 70
     1
102
RTVSPost2010Prop38
140
0.0
102
RTVSPost2010PropOp38
 70
     1
102
RTVSPost2010Prop39
140
1.0
102
RTVSPost2010PropOp39
 70
     1
102
RTVSPost2010Prop40
 90
        0
102
RTVSPost2010PropOp40
 70
     1
102
RTVSPost2010Prop41ColorIndex
 90
       18
102
RTVSPost2010Prop41ColorRGB
 90
        0
102
RTVSPost2010PropOp41
 70
     1
102
RTVSPost2010Prop42
 90
       50
102
RTVSPost2010PropOp42
 70
     1
102
RTVSPost2010Prop43
 90
        3
102
RTVSPost2010PropOp43
 70
     1
102
RTVSPost2010Prop44ColorIndex
 90
        5
102
RTVSPost2010Prop44ColorRGB
 90
      255
102
RTVSPost2010PropOp44
 70
     1
102
RTVSPost2010Prop45
280
     0
102
RTVSPost2010PropOp45
 70
     1
102
RTVSPost2010Prop46
 90
       50
102
RTVSPost2010PropOp46
 70
     1
102
RTVSPost2010Prop47
 90
       50
102
RTVSPost2010PropOp47
 70
     1
102
RTVSPost2010Prop48
 90
       50
102
RTVSPost2010PropOp48
 70
     1
102
RTVSPost2010Prop49
280
     0
102
RTVSPost2010PropOp49
 70
     1
102
RTVSPost2010Prop50
 90
       50
102
RTVSPost2010PropOp50
 70
     1
102
RTVSPost2010Prop51ColorIndex
 90
      256
102
RTVSPost2010Prop51ColorRGB
 90
-16777216
102
RTVSPost2010PropOp51
 70
     0
102
RTVSPost2010Prop52
140
1.0
102
RTVSPost2010PropOp52
 70
     0
102
RTVSPost2010Prop53
 90
        2
102
RTVSPost2010PropOp53
 70
     1
102
RTVSPost2010Prop54
  1
strokes_ogs.tif
102
RTVSPost2010PropOp54
 70
     1
102
RTVSPost2010Prop55
280
     0
102
RTVSPost2010PropOp55
 70
     1
102
RTVSPost2010Prop56
140
1.0
102
RTVSPost2010PropOp56
 70
     1
102
RTVSPost2010Prop57
140
1.0
102
RTVSPost2010PropOp57
 70
     1
  0
XRECORD
  5
1D4
102
{ACAD_REACTORS
330
1D3
102
}
330
1D3
100
AcDbXrecord
280
     1
102
RTVSPropertyOp0
 70
     1
102
RTVSPropertyOp1
 70
     1
102
RTVSPropertyOp2
 70
     1
102
RTVSPropertyOp3
 70
     1
102
RTVSPropertyOp4
 70
     1
102
RTVSPropertyOp5
 70
     1
102
RTVSPropertyOp6
 70
     1
102
RTVSPropertyOp7
 70
     1
102
RTVSPropertyOp8
 70
     1
102
RTVSPropertyOp9
 70
     1
102
RTVSPropertyOp10
 70
     1
102
RTVSPropertyOp11
 70
     1
102
RTVSPropertyOp12
 70
     1
102
RTVSPropertyOp13
 70
     1
102
RTVSPropertyOp14
 70
     1
102
RTVSPropertyOp15
 70
     1
102
RTVSPropertyOp16
 70
     1
102
RTVSPropertyOp17
 70
     1
102
RTVSPropertyOp18
 70
     1
102
RTVSPropertyOp19
 70
     1
102
RTVSPropertyOp20
 70
     1
102
RTVSPropertyOp21
 70
     1
102
RTVSPropertyOp22
 70
     1
102
RTVSPropertyOp23
 70
     1
102
RTVSPropertyOp24
 70
     1
102
RTVSPropertyOp25
 70
     1
102
RTVSPropertyOp26
 70
     1
102
RTVSPropertyOp27
 70
     1
102
RTVSPropertyOp28
 70
     1
102
RTVSPropertyOp29
 70
     1
102
RTVSPropertyOp30
 70
     1
102
RTVSPropertyOp31
 70
     1
102
RTVSPropertyOp32
 70
     1
102
RTVSPropertyOp33
 70
     1
102
RTVSPropertyOp34
 70
     1
102
RTVSPropertyOp35
 70
     1
102
RTVSPropertyOp36
 70
     1
102
RTVSPropertyOp37
 70
     1
102
RTVSPropertyOp38
 70
     1
102
RTVSPropertyOp39
 70
     1
102
RTVSPropertyOp40
 70
     1
102
RTVSPropertyOp41
 70
     1
102
RTVSPropertyOp42
 70
     1
102
RTVSPropertyOp43
 70
     1
102
RTVSPropertyOp44
 70
     1
102
RTVSPropertyOp45
 70
     1
102
RTVSPropertyOp46
 70
     1
102
RTVSPropertyOp47
 70
     1
102
RTVSPropertyOp48
 70
     1
102
RTVSPropertyOp49
 70
     1
102
RTVSPropertyOp50
 70
     1
102
RTVSPropertyOp51
 70
     0
102
RTVSPropertyOp52
 70
     0
102
RTVSPropertyOp53
 70
     1
102
RTVSPropertyOp54
 70
     1
102
RTVSPropertyOp55
 70
     1
102
RTVSPropertyOp56
 70
     1
102
RTVSPropertyOp57
 70
     1
102
RTVSPost2010Prop28
280
     0
102
RTVSPost2010PropOp28
 70
     1
102
RTVSPost2010Prop29
280
     1
102
RTVSPost2010PropOp29
 70
     1
102
RTVSPost2010Prop30
280
     1
102
RTVSPost2010PropOp30
 70
     1
102
RTVSPost2010Prop31
280
     0
102
RTVSPost2010PropOp31
 70
     1
102
RTVSPost2010Prop32
280
     0
102
RTVSPost2010PropOp32
 70
     1
102
RTVSPost2010Prop33
280
     0
102
RTVSPost2010PropOp33
 70
     1
102
RTVSPost2010Prop34
280
     0
102
RTVSPost2010PropOp34
 70
     1
102
RTVSPost2010Prop35
280
     0
102
RTVSPost2010PropOp35
 70
     1
102
RTVSPost2010Prop36
280
     0
102
RTVSPost2010PropOp36
 70
     1
102
RTVSPost2010Prop37
 90
       50
102
RTVSPost2010PropOp37
 70
     1
102
RTVSPost2010Prop38
140
0.0
102
RTVSPost2010PropOp38
 70
     1
102
RTVSPost2010Prop39
140
1.0
102
RTVSPost2010PropOp39
 70
     1
102
RTVSPost2010Prop40
 90
        0
102
RTVSPost2010PropOp40
 70
     1
102
RTVSPost2010Prop41ColorIndex
 90
       18
102
RTVSPost2010Prop41ColorRGB
 90
        0
102
RTVSPost2010PropOp41
 70
     1
102
RTVSPost2010Prop42
 90
       50
102
RTVSPost2010PropOp42
 70
     1
102
RTVSPost2010Prop43
 90
        3
102
RTVSPost2010PropOp43
 70
     1
102
RTVSPost2010Prop44ColorIndex
 90
        5
102
RTVSPost2010Prop44ColorRGB
 90
      255
102
RTVSPost2010PropOp44
 70
     1
102
RTVSPost2010Prop45
280
     0
102
RTVSPost2010PropOp45
 70
     1
102
RTVSPost2010Prop46
 90
       50
102
RTVSPost2010PropOp46
 70
     1
102
RTVSPost2010Prop47
 90
       50
102
RTVSPost2010PropOp47
 70
     1
102
RTVSPost2010Prop48
 90
       50
102
RTVSPost2010PropOp48
 70
     1
102
RTVSPost2010Prop49
280
     0
102
RTVSPost2010PropOp49
 70
     1
102
RTVSPost2010Prop50
 90
       50
102
RTVSPost2010PropOp50
 70
     1
102
RTVSPost2010Prop51ColorIndex
 90
      256
102
RTVSPost2010Prop51ColorRGB
 90
-16777216
102
RTVSPost2010PropOp51
 70
     0
102
RTVSPost2010Prop52
140
1.0
102
RTVSPost2010PropOp52
 70
     0
102
RTVSPost2010Prop53
 90
        2
102
RTVSPost2010PropOp53
 70
     1
102
RTVSPost2010Prop54
  1
strokes_ogs.tif
102
RTVSPost2010PropOp54
 70
     1
102
RTVSPost2010Prop55
280
     0
102
RTVSPost2010PropOp55
 70
     1
102
RTVSPost2010Prop56
140
1.0
102
RTVSPost2010PropOp56
 70
     1
102
RTVSPost2010Prop57
140
1.0
102
RTVSPost2010PropOp57
 70
     1
  0
XRECORD
  5
1E4
102
{ACAD_REACTORS
330
1E3
102
}
330
1E3
100
AcDbXrecord
280
     1
102
RTVSPropertyOp0
 70
     0
102
RTVSPropertyOp1
 70
     0
102
RTVSPropertyOp2
 70
     0
102
RTVSPropertyOp3
 70
     0
102
RTVSPropertyOp4
 70
     0
102
RTVSPropertyOp5
 70
     0
102
RTVSPropertyOp6
 70
     0
102
RTVSPropertyOp7
 70
     0
102
RTVSPropertyOp8
 70
     0
102
RTVSPropertyOp9
 70
     0
102
RTVSPropertyOp10
 70
     0
102
RTVSPropertyOp11
 70
     0
102
RTVSPropertyOp12
 70
     0
102
RTVSPropertyOp13
 70
     0
102
RTVSPropertyOp14
 70
     2
102
RTVSPropertyOp15
 70
     0
102
RTVSPropertyOp16
 70
     0
102
RTVSPropertyOp17
 70
     0
102
RTVSPropertyOp18
 70
     0
102
RTVSPropertyOp19
 70
     0
102
RTVSPropertyOp20
 70
     0
102
RTVSPropertyOp21
 70
     0
102
RTVSPropertyOp22
 70
     0
102
RTVSPropertyOp23
 70
     0
102
RTVSPropertyOp24
 70
     0
102
RTVSPropertyOp25
 70
     0
102
RTVSPropertyOp26
 70
     0
102
RTVSPropertyOp27
 70
     0
102
RTVSPropertyOp28
 70
     0
102
RTVSPropertyOp29
 70
     0
102
RTVSPropertyOp30
 70
     0
102
RTVSPropertyOp31
 70
     0
102
RTVSPropertyOp32
 70
     0
102
RTVSPropertyOp33
 70
     0
102
RTVSPropertyOp34
 70
     0
102
RTVSPropertyOp35
 70
     0
102
RTVSPropertyOp36
 70
     0
102
RTVSPropertyOp37
 70
     0
102
RTVSPropertyOp38
 70
     0
102
RTVSPropertyOp39
 70
     0
102
RTVSPropertyOp40
 70
     0
102
RTVSPropertyOp41
 70
     0
102
RTVSPropertyOp42
 70
     0
102
RTVSPropertyOp43
 70
     0
102
RTVSPropertyOp44
 70
     0
102
RTVSPropertyOp45
 70
     0
102
RTVSPropertyOp46
 70
     0
102
RTVSPropertyOp47
 70
     0
102
RTVSPropertyOp48
 70
     0
102
RTVSPropertyOp49
 70
     0
102
RTVSPropertyOp50
 70
     0
102
RTVSPropertyOp51
 70
     0
102
RTVSPropertyOp52
 70
     0
102
RTVSPropertyOp53
 70
     0
102
RTVSPropertyOp54
 70
     0
102
RTVSPropertyOp55
 70
     0
102
RTVSPropertyOp56
 70
     0
102
RTVSPropertyOp57
 70
     0
102
RTVSPost2010Prop28
280
     0
102
RTVSPost2010PropOp28
 70
     0
102
RTVSPost2010Prop29
280
     1
102
RTVSPost2010PropOp29
 70
     0
102
RTVSPost2010Prop30
280
     1
102
RTVSPost2010PropOp30
 70
     0
102
RTVSPost2010Prop31
280
     0
102
RTVSPost2010PropOp31
 70
     0
102
RTVSPost2010Prop32
280
     0
102
RTVSPost2010PropOp32
 70
     0
102
RTVSPost2010Prop33
280
     0
102
RTVSPost2010PropOp33
 70
     0
102
RTVSPost2010Prop34
280
     0
102
RTVSPost2010PropOp34
 70
     0
102
RTVSPost2010Prop35
280
     0
102
RTVSPost2010PropOp35
 70
     0
102
RTVSPost2010Prop36
280
     0
102
RTVSPost2010PropOp36
 70
     0
102
RTVSPost2010Prop37
 90
       50
102
RTVSPost2010PropOp37
 70
     0
102
RTVSPost2010Prop38
140
0.0
102
RTVSPost2010PropOp38
 70
     0
102
RTVSPost2010Prop39
140
1.0
102
RTVSPost2010PropOp39
 70
     0
102
RTVSPost2010Prop40
 90
        0
102
RTVSPost2010PropOp40
 70
     0
102
RTVSPost2010Prop41ColorIndex
 90
       18
102
RTVSPost2010Prop41ColorRGB
 90
        0
102
RTVSPost2010PropOp41
 70
     0
102
RTVSPost2010Prop42
 90
       50
102
RTVSPost2010PropOp42
 70
     0
102
RTVSPost2010Prop43
 90
        3
102
RTVSPost2010PropOp43
 70
     0
102
RTVSPost2010Prop44ColorIndex
 90
        5
102
RTVSPost2010Prop44ColorRGB
 90
      255
102
RTVSPost2010PropOp44
 70
     0
102
RTVSPost2010Prop45
280
     0
102
RTVSPost2010PropOp45
 70
     0
102
RTVSPost2010Prop46
 90
       50
102
RTVSPost2010PropOp46
 70
     0
102
RTVSPost2010Prop47
 90
       50
102
RTVSPost2010PropOp47
 70
     0
102
RTVSPost2010Prop48
 90
       50
102
RTVSPost2010PropOp48
 70
     0
102
RTVSPost2010Prop49
280
     0
102
RTVSPost2010PropOp49
 70
     0
102
RTVSPost2010Prop50
 90
       50
102
RTVSPost2010PropOp50
 70
     0
102
RTVSPost2010Prop51ColorIndex
 90
      256
102
RTVSPost2010Prop51ColorRGB
 90
-16777216
102
RTVSPost2010PropOp51
 70
     0
102
RTVSPost2010Prop52
140
1.0
102
RTVSPost2010PropOp52
 70
     0
102
RTVSPost2010Prop53
 90
        2
102
RTVSPost2010PropOp53
 70
     0
102
RTVSPost2010Prop54
  1
strokes_ogs.tif
102
RTVSPost2010PropOp54
 70
     0
102
RTVSPost2010Prop55
280
     0
102
RTVSPost2010PropOp55
 70
     0
102
RTVSPost2010Prop56
140
1.0
102
RTVSPost2010PropOp56
 70
     0
102
RTVSPost2010Prop57
140
1.0
102
RTVSPost2010PropOp57
 70
     0
  0
XRECORD
  5
1DC
102
{ACAD_REACTORS
330
1DB
102
}
330
1DB
100
AcDbXrecord
280
     1
102
RTVSPropertyOp0
 70
     1
102
RTVSPropertyOp1
 70
     1
102
RTVSPropertyOp2
 70
     1
102
RTVSPropertyOp3
 70
     1
102
RTVSPropertyOp4
 70
     1
102
RTVSPropertyOp5
 70
     1
102
RTVSPropertyOp6
 70
     1
102
RTVSPropertyOp7
 70
     1
102
RTVSPropertyOp8
 70
     1
102
RTVSPropertyOp9
 70
     1
102
RTVSPropertyOp10
 70
     1
102
RTVSPropertyOp11
 70
     1
102
RTVSPropertyOp12
 70
     1
102
RTVSPropertyOp13
 70
     1
102
RTVSPropertyOp14
 70
     1
102
RTVSPropertyOp15
 70
     1
102
RTVSPropertyOp16
 70
     1
102
RTVSPropertyOp17
 70
     1
102
RTVSPropertyOp18
 70
     1
102
RTVSPropertyOp19
 70
     1
102
RTVSPropertyOp20
 70
     1
102
RTVSPropertyOp21
 70
     1
102
RTVSPropertyOp22
 70
     1
102
RTVSPropertyOp23
 70
     1
102
RTVSPropertyOp24
 70
     1
102
RTVSPropertyOp25
 70
     1
102
RTVSPropertyOp26
 70
     1
102
RTVSPropertyOp27
 70
     1
102
RTVSPropertyOp28
 70
     1
102
RTVSPropertyOp29
 70
     1
102
RTVSPropertyOp30
 70
     1
102
RTVSPropertyOp31
 70
     1
102
RTVSPropertyOp32
 70
     1
102
RTVSPropertyOp33
 70
     1
102
RTVSPropertyOp34
 70
     1
102
RTVSPropertyOp35
 70
     1
102
RTVSPropertyOp36
 70
     1
102
RTVSPropertyOp37
 70
     1
102
RTVSPropertyOp38
 70
     1
102
RTVSPropertyOp39
 70
     1
102
RTVSPropertyOp40
 70
     1
102
RTVSPropertyOp41
 70
     1
102
RTVSPropertyOp42
 70
     1
102
RTVSPropertyOp43
 70
     1
102
RTVSPropertyOp44
 70
     1
102
RTVSPropertyOp45
 70
     1
102
RTVSPropertyOp46
 70
     1
102
RTVSPropertyOp47
 70
     1
102
RTVSPropertyOp48
 70
     1
102
RTVSPropertyOp49
 70
     1
102
RTVSPropertyOp50
 70
     1
102
RTVSPropertyOp51
 70
     0
102
RTVSPropertyOp52
 70
     0
102
RTVSPropertyOp53
 70
     1
102
RTVSPropertyOp54
 70
     1
102
RTVSPropertyOp55
 70
     1
102
RTVSPropertyOp56
 70
     1
102
RTVSPropertyOp57
 70
     1
102
RTVSPost2010Prop28
280
     0
102
RTVSPost2010PropOp28
 70
     1
102
RTVSPost2010Prop29
280
     1
102
RTVSPost2010PropOp29
 70
     1
102
RTVSPost2010Prop30
280
     1
102
RTVSPost2010PropOp30
 70
     1
102
RTVSPost2010Prop31
280
     0
102
RTVSPost2010PropOp31
 70
     1
102
RTVSPost2010Prop32
280
     0
102
RTVSPost2010PropOp32
 70
     1
102
RTVSPost2010Prop33
280
     0
102
RTVSPost2010PropOp33
 70
     1
102
RTVSPost2010Prop34
280
     0
102
RTVSPost2010PropOp34
 70
     1
102
RTVSPost2010Prop35
280
     0
102
RTVSPost2010PropOp35
 70
     1
102
RTVSPost2010Prop36
280
     0
102
RTVSPost2010PropOp36
 70
     1
102
RTVSPost2010Prop37
 90
       50
102
RTVSPost2010PropOp37
 70
     1
102
RTVSPost2010Prop38
140
0.0
102
RTVSPost2010PropOp38
 70
     1
102
RTVSPost2010Prop39
140
1.0
102
RTVSPost2010PropOp39
 70
     1
102
RTVSPost2010Prop40
 90
        0
102
RTVSPost2010PropOp40
 70
     1
102
RTVSPost2010Prop41ColorIndex
 90
       18
102
RTVSPost2010Prop41ColorRGB
 90
        0
102
RTVSPost2010PropOp41
 70
     1
102
RTVSPost2010Prop42
 90
       50
102
RTVSPost2010PropOp42
 70
     1
102
RTVSPost2010Prop43
 90
        3
102
RTVSPost2010PropOp43
 70
     1
102
RTVSPost2010Prop44ColorIndex
 90
        5
102
RTVSPost2010Prop44ColorRGB
 90
      255
102
RTVSPost2010PropOp44
 70
     1
102
RTVSPost2010Prop45
280
     0
102
RTVSPost2010PropOp45
 70
     1
102
RTVSPost2010Prop46
 90
       50
102
RTVSPost2010PropOp46
 70
     1
102
RTVSPost2010Prop47
 90
       50
102
RTVSPost2010PropOp47
 70
     1
102
RTVSPost2010Prop48
 90
       50
102
RTVSPost2010PropOp48
 70
     1
102
RTVSPost2010Prop49
280
     0
102
RTVSPost2010PropOp49
 70
     1
102
RTVSPost2010Prop50
 90
       50
102
RTVSPost2010PropOp50
 70
     1
102
RTVSPost2010Prop51ColorIndex
 90
      256
102
RTVSPost2010Prop51ColorRGB
 90
-16777216
102
RTVSPost2010PropOp51
 70
     0
102
RTVSPost2010Prop52
140
1.0
102
RTVSPost2010PropOp52
 70
     0
102
RTVSPost2010Prop53
 90
        2
102
RTVSPost2010PropOp53
 70
     1
102
RTVSPost2010Prop54
  1
strokes_ogs.tif
102
RTVSPost2010PropOp54
 70
     1
102
RTVSPost2010Prop55
280
     0
102
RTVSPost2010PropOp55
 70
     1
102
RTVSPost2010Prop56
140
1.0
102
RTVSPost2010PropOp56
 70
     1
102
RTVSPost2010Prop57
140
1.0
102
RTVSPost2010PropOp57
 70
     1
  0
XRECORD
  5
1C0
102
{ACAD_REACTORS
330
1BF
102
}
330
1BF
100
AcDbXrecord
280
     1
102
RTVSPropertyOp0
 70
     1
102
RTVSPropertyOp1
 70
     1
102
RTVSPropertyOp2
 70
     1
102
RTVSPropertyOp3
 70
     1
102
RTVSPropertyOp4
 70
     1
102
RTVSPropertyOp5
 70
     1
102
RTVSPropertyOp6
 70
     1
102
RTVSPropertyOp7
 70
     1
102
RTVSPropertyOp8
 70
     1
102
RTVSPropertyOp9
 70
     1
102
RTVSPropertyOp10
 70
     1
102
RTVSPropertyOp11
 70
     1
102
RTVSPropertyOp12
 70
     1
102
RTVSPropertyOp13
 70
     1
102
RTVSPropertyOp14
 70
     1
102
RTVSPropertyOp15
 70
     1
102
RTVSPropertyOp16
 70
     1
102
RTVSPropertyOp17
 70
     1
102
RTVSPropertyOp18
 70
     1
102
RTVSPropertyOp19
 70
     1
102
RTVSPropertyOp20
 70
     1
102
RTVSPropertyOp21
 70
     1
102
RTVSPropertyOp22
 70
     1
102
RTVSPropertyOp23
 70
     1
102
RTVSPropertyOp24
 70
     1
102
RTVSPropertyOp25
 70
     1
102
RTVSPropertyOp26
 70
     1
102
RTVSPropertyOp27
 70
     1
102
RTVSPropertyOp28
 70
     1
102
RTVSPropertyOp29
 70
     1
102
RTVSPropertyOp30
 70
     1
102
RTVSPropertyOp31
 70
     1
102
RTVSPropertyOp32
 70
     1
102
RTVSPropertyOp33
 70
     1
102
RTVSPropertyOp34
 70
     1
102
RTVSPropertyOp35
 70
     1
102
RTVSPropertyOp36
 70
     1
102
RTVSPropertyOp37
 70
     1
102
RTVSPropertyOp38
 70
     1
102
RTVSPropertyOp39
 70
     1
102
RTVSPropertyOp40
 70
     1
102
RTVSPropertyOp41
 70
     1
102
RTVSPropertyOp42
 70
     1
102
RTVSPropertyOp43
 70
     1
102
RTVSPropertyOp44
 70
     1
102
RTVSPropertyOp45
 70
     1
102
RTVSPropertyOp46
 70
     1
102
RTVSPropertyOp47
 70
     1
102
RTVSPropertyOp48
 70
     1
102
RTVSPropertyOp49
 70
     1
102
RTVSPropertyOp50
 70
     1
102
RTVSPropertyOp51
 70
     0
102
RTVSPropertyOp52
 70
     0
102
RTVSPropertyOp53
 70
     1
102
RTVSPropertyOp54
 70
     1
102
RTVSPropertyOp55
 70
     1
102
RTVSPropertyOp56
 70
     1
102
RTVSPropertyOp57
 70
     1
102
RTVSPost2010Prop28
280
     0
102
RTVSPost2010PropOp28
 70
     1
102
RTVSPost2010Prop29
280
     1
102
RTVSPost2010PropOp29
 70
     1
102
RTVSPost2010Prop30
280
     1
102
RTVSPost2010PropOp30
 70
     1
102
RTVSPost2010Prop31
280
     0
102
RTVSPost2010PropOp31
 70
     1
102
RTVSPost2010Prop32
280
     0
102
RTVSPost2010PropOp32
 70
     1
102
RTVSPost2010Prop33
280
     0
102
RTVSPost2010PropOp33
 70
     1
102
RTVSPost2010Prop34
280
     0
102
RTVSPost2010PropOp34
 70
     1
102
RTVSPost2010Prop35
280
     0
102
RTVSPost2010PropOp35
 70
     1
102
RTVSPost2010Prop36
280
     0
102
RTVSPost2010PropOp36
 70
     1
102
RTVSPost2010Prop37
 90
       50
102
RTVSPost2010PropOp37
 70
     1
102
RTVSPost2010Prop38
140
0.0
102
RTVSPost2010PropOp38
 70
     1
102
RTVSPost2010Prop39
140
1.0
102
RTVSPost2010PropOp39
 70
     1
102
RTVSPost2010Prop40
 90
        0
102
RTVSPost2010PropOp40
 70
     1
102
RTVSPost2010Prop41ColorIndex
 90
       18
102
RTVSPost2010Prop41ColorRGB
 90
        0
102
RTVSPost2010PropOp41
 70
     1
102
RTVSPost2010Prop42
 90
       50
102
RTVSPost2010PropOp42
 70
     1
102
RTVSPost2010Prop43
 90
        3
102
RTVSPost2010PropOp43
 70
     1
102
RTVSPost2010Prop44ColorIndex
 90
        5
102
RTVSPost2010Prop44ColorRGB
 90
      255
102
RTVSPost2010PropOp44
 70
     1
102
RTVSPost2010Prop45
280
     0
102
RTVSPost2010PropOp45
 70
     1
102
RTVSPost2010Prop46
 90
       50
102
RTVSPost2010PropOp46
 70
     1
102
RTVSPost2010Prop47
 90
       50
102
RTVSPost2010PropOp47
 70
     1
102
RTVSPost2010Prop48
 90
       50
102
RTVSPost2010PropOp48
 70
     1
102
RTVSPost2010Prop49
280
     0
102
RTVSPost2010PropOp49
 70
     1
102
RTVSPost2010Prop50
 90
       50
102
RTVSPost2010PropOp50
 70
     1
102
RTVSPost2010Prop51ColorIndex
 90
      256
102
RTVSPost2010Prop51ColorRGB
 90
-16777216
102
RTVSPost2010PropOp51
 70
     0
102
RTVSPost2010Prop52
140
1.0
102
RTVSPost2010PropOp52
 70
     0
102
RTVSPost2010Prop53
 90
        2
102
RTVSPost2010PropOp53
 70
     1
102
RTVSPost2010Prop54
  1
strokes_ogs.tif
102
RTVSPost2010PropOp54
 70
     1
102
RTVSPost2010Prop55
280
     0
102
RTVSPost2010PropOp55
 70
     1
102
RTVSPost2010Prop56
140
1.0
102
RTVSPost2010PropOp56
 70
     1
102
RTVSPost2010Prop57
140
1.0
102
RTVSPost2010PropOp57
 70
     1
  0
XRECORD
  5
1C2
102
{ACAD_REACTORS
330
1C1
102
}
330
1C1
100
AcDbXrecord
280
     1
102
RTVSPropertyOp0
 70
     1
102
RTVSPropertyOp1
 70
     1
102
RTVSPropertyOp2
 70
     1
102
RTVSPropertyOp3
 70
     1
102
RTVSPropertyOp4
 70
     1
102
RTVSPropertyOp5
 70
     1
102
RTVSPropertyOp6
 70
     1
102
RTVSPropertyOp7
 70
     1
102
RTVSPropertyOp8
 70
     1
102
RTVSPropertyOp9
 70
     1
102
RTVSPropertyOp10
 70
     1
102
RTVSPropertyOp11
 70
     1
102
RTVSPropertyOp12
 70
     1
102
RTVSPropertyOp13
 70
     1
102
RTVSPropertyOp14
 70
     1
102
RTVSPropertyOp15
 70
     1
102
RTVSPropertyOp16
 70
     1
102
RTVSPropertyOp17
 70
     1
102
RTVSPropertyOp18
 70
     1
102
RTVSPropertyOp19
 70
     1
102
RTVSPropertyOp20
 70
     1
102
RTVSPropertyOp21
 70
     1
102
RTVSPropertyOp22
 70
     1
102
RTVSPropertyOp23
 70
     1
102
RTVSPropertyOp24
 70
     1
102
RTVSPropertyOp25
 70
     1
102
RTVSPropertyOp26
 70
     1
102
RTVSPropertyOp27
 70
     1
102
RTVSPropertyOp28
 70
     1
102
RTVSPropertyOp29
 70
     1
102
RTVSPropertyOp30
 70
     1
102
RTVSPropertyOp31
 70
     1
102
RTVSPropertyOp32
 70
     1
102
RTVSPropertyOp33
 70
     1
102
RTVSPropertyOp34
 70
     1
102
RTVSPropertyOp35
 70
     1
102
RTVSPropertyOp36
 70
     1
102
RTVSPropertyOp37
 70
     1
102
RTVSPropertyOp38
 70
     1
102
RTVSPropertyOp39
 70
     1
102
RTVSPropertyOp40
 70
     1
102
RTVSPropertyOp41
 70
     1
102
RTVSPropertyOp42
 70
     1
102
RTVSPropertyOp43
 70
     1
102
RTVSPropertyOp44
 70
     1
102
RTVSPropertyOp45
 70
     1
102
RTVSPropertyOp46
 70
     1
102
RTVSPropertyOp47
 70
     1
102
RTVSPropertyOp48
 70
     1
102
RTVSPropertyOp49
 70
     1
102
RTVSPropertyOp50
 70
     1
102
RTVSPropertyOp51
 70
     0
102
RTVSPropertyOp52
 70
     0
102
RTVSPropertyOp53
 70
     1
102
RTVSPropertyOp54
 70
     1
102
RTVSPropertyOp55
 70
     1
102
RTVSPropertyOp56
 70
     1
102
RTVSPropertyOp57
 70
     1
102
RTVSPost2010Prop28
280
     0
102
RTVSPost2010PropOp28
 70
     1
102
RTVSPost2010Prop29
280
     1
102
RTVSPost2010PropOp29
 70
     1
102
RTVSPost2010Prop30
280
     1
102
RTVSPost2010PropOp30
 70
     1
102
RTVSPost2010Prop31
280
     0
102
RTVSPost2010PropOp31
 70
     1
102
RTVSPost2010Prop32
280
     0
102
RTVSPost2010PropOp32
 70
     1
102
RTVSPost2010Prop33
280
     0
102
RTVSPost2010PropOp33
 70
     1
102
RTVSPost2010Prop34
280
     0
102
RTVSPost2010PropOp34
 70
     1
102
RTVSPost2010Prop35
280
     0
102
RTVSPost2010PropOp35
 70
     1
102
RTVSPost2010Prop36
280
     0
102
RTVSPost2010PropOp36
 70
     1
102
RTVSPost2010Prop37
 90
       50
102
RTVSPost2010PropOp37
 70
     1
102
RTVSPost2010Prop38
140
0.0
102
RTVSPost2010PropOp38
 70
     1
102
RTVSPost2010Prop39
140
1.0
102
RTVSPost2010PropOp39
 70
     1
102
RTVSPost2010Prop40
 90
        0
102
RTVSPost2010PropOp40
 70
     1
102
RTVSPost2010Prop41ColorIndex
 90
       18
102
RTVSPost2010Prop41ColorRGB
 90
        0
102
RTVSPost2010PropOp41
 70
     1
102
RTVSPost2010Prop42
 90
       50
102
RTVSPost2010PropOp42
 70
     1
102
RTVSPost2010Prop43
 90
        3
102
RTVSPost2010PropOp43
 70
     1
102
RTVSPost2010Prop44ColorIndex
 90
        5
102
RTVSPost2010Prop44ColorRGB
 90
      255
102
RTVSPost2010PropOp44
 70
     1
102
RTVSPost2010Prop45
280
     0
102
RTVSPost2010PropOp45
 70
     1
102
RTVSPost2010Prop46
 90
       50
102
RTVSPost2010PropOp46
 70
     1
102
RTVSPost2010Prop47
 90
       50
102
RTVSPost2010PropOp47
 70
     1
102
RTVSPost2010Prop48
 90
       50
102
RTVSPost2010PropOp48
 70
     1
102
RTVSPost2010Prop49
280
     0
102
RTVSPost2010PropOp49
 70
     1
102
RTVSPost2010Prop50
 90
       50
102
RTVSPost2010PropOp50
 70
     1
102
RTVSPost2010Prop51ColorIndex
 90
      256
102
RTVSPost2010Prop51ColorRGB
 90
-16777216
102
RTVSPost2010PropOp51
 70
     0
102
RTVSPost2010Prop52
140
1.0
102
RTVSPost2010PropOp52
 70
     0
102
RTVSPost2010Prop53
 90
        2
102
RTVSPost2010PropOp53
 70
     1
102
RTVSPost2010Prop54
  1
strokes_ogs.tif
102
RTVSPost2010PropOp54
 70
     1
102
RTVSPost2010Prop55
280
     0
102
RTVSPost2010PropOp55
 70
     1
102
RTVSPost2010Prop56
140
1.0
102
RTVSPost2010PropOp56
 70
     1
102
RTVSPost2010Prop57
140
1.0
102
RTVSPost2010PropOp57
 70
     1
  0
XRECORD
  5
1C4
102
{ACAD_REACTORS
330
1C3
102
}
330
1C3
100
AcDbXrecord
280
     1
102
RTVSPropertyOp0
 70
     1
102
RTVSPropertyOp1
 70
     1
102
RTVSPropertyOp2
 70
     1
102
RTVSPropertyOp3
 70
     1
102
RTVSPropertyOp4
 70
     1
102
RTVSPropertyOp5
 70
     1
102
RTVSPropertyOp6
 70
     1
102
RTVSPropertyOp7
 70
     1
102
RTVSPropertyOp8
 70
     1
102
RTVSPropertyOp9
 70
     1
102
RTVSPropertyOp10
 70
     1
102
RTVSPropertyOp11
 70
     1
102
RTVSPropertyOp12
 70
     1
102
RTVSPropertyOp13
 70
     1
102
RTVSPropertyOp14
 70
     1
102
RTVSPropertyOp15
 70
     1
102
RTVSPropertyOp16
 70
     1
102
RTVSPropertyOp17
 70
     1
102
RTVSPropertyOp18
 70
     1
102
RTVSPropertyOp19
 70
     1
102
RTVSPropertyOp20
 70
     1
102
RTVSPropertyOp21
 70
     1
102
RTVSPropertyOp22
 70
     1
102
RTVSPropertyOp23
 70
     1
102
RTVSPropertyOp24
 70
     1
102
RTVSPropertyOp25
 70
     1
102
RTVSPropertyOp26
 70
     1
102
RTVSPropertyOp27
 70
     1
102
RTVSPropertyOp28
 70
     1
102
RTVSPropertyOp29
 70
     1
102
RTVSPropertyOp30
 70
     1
102
RTVSPropertyOp31
 70
     1
102
RTVSPropertyOp32
 70
     1
102
RTVSPropertyOp33
 70
     1
102
RTVSPropertyOp34
 70
     1
102
RTVSPropertyOp35
 70
     1
102
RTVSPropertyOp36
 70
     1
102
RTVSPropertyOp37
 70
     1
102
RTVSPropertyOp38
 70
     1
102
RTVSPropertyOp39
 70
     1
102
RTVSPropertyOp40
 70
     1
102
RTVSPropertyOp41
 70
     1
102
RTVSPropertyOp42
 70
     1
102
RTVSPropertyOp43
 70
     1
102
RTVSPropertyOp44
 70
     1
102
RTVSPropertyOp45
 70
     1
102
RTVSPropertyOp46
 70
     1
102
RTVSPropertyOp47
 70
     1
102
RTVSPropertyOp48
 70
     1
102
RTVSPropertyOp49
 70
     1
102
RTVSPropertyOp50
 70
     1
102
RTVSPropertyOp51
 70
     0
102
RTVSPropertyOp52
 70
     0
102
RTVSPropertyOp53
 70
     1
102
RTVSPropertyOp54
 70
     1
102
RTVSPropertyOp55
 70
     1
102
RTVSPropertyOp56
 70
     1
102
RTVSPropertyOp57
 70
     1
102
RTVSPost2010Prop28
280
     0
102
RTVSPost2010PropOp28
 70
     1
102
RTVSPost2010Prop29
280
     1
102
RTVSPost2010PropOp29
 70
     1
102
RTVSPost2010Prop30
280
     1
102
RTVSPost2010PropOp30
 70
     1
102
RTVSPost2010Prop31
280
     0
102
RTVSPost2010PropOp31
 70
     1
102
RTVSPost2010Prop32
280
     0
102
RTVSPost2010PropOp32
 70
     1
102
RTVSPost2010Prop33
280
     0
102
RTVSPost2010PropOp33
 70
     1
102
RTVSPost2010Prop34
280
     0
102
RTVSPost2010PropOp34
 70
     1
102
RTVSPost2010Prop35
280
     0
102
RTVSPost2010PropOp35
 70
     1
102
RTVSPost2010Prop36
280
     0
102
RTVSPost2010PropOp36
 70
     1
102
RTVSPost2010Prop37
 90
       50
102
RTVSPost2010PropOp37
 70
     1
102
RTVSPost2010Prop38
140
0.0
102
RTVSPost2010PropOp38
 70
     1
102
RTVSPost2010Prop39
140
1.0
102
RTVSPost2010PropOp39
 70
     1
102
RTVSPost2010Prop40
 90
        0
102
RTVSPost2010PropOp40
 70
     1
102
RTVSPost2010Prop41ColorIndex
 90
       18
102
RTVSPost2010Prop41ColorRGB
 90
        0
102
RTVSPost2010PropOp41
 70
     1
102
RTVSPost2010Prop42
 90
       50
102
RTVSPost2010PropOp42
 70
     1
102
RTVSPost2010Prop43
 90
        3
102
RTVSPost2010PropOp43
 70
     1
102
RTVSPost2010Prop44ColorIndex
 90
        5
102
RTVSPost2010Prop44ColorRGB
 90
      255
102
RTVSPost2010PropOp44
 70
     1
102
RTVSPost2010Prop45
280
     0
102
RTVSPost2010PropOp45
 70
     1
102
RTVSPost2010Prop46
 90
       50
102
RTVSPost2010PropOp46
 70
     1
102
RTVSPost2010Prop47
 90
       50
102
RTVSPost2010PropOp47
 70
     1
102
RTVSPost2010Prop48
 90
       50
102
RTVSPost2010PropOp48
 70
     1
102
RTVSPost2010Prop49
280
     0
102
RTVSPost2010PropOp49
 70
     1
102
RTVSPost2010Prop50
 90
       50
102
RTVSPost2010PropOp50
 70
     1
102
RTVSPost2010Prop51ColorIndex
 90
      256
102
RTVSPost2010Prop51ColorRGB
 90
-16777216
102
RTVSPost2010PropOp51
 70
     0
102
RTVSPost2010Prop52
140
1.0
102
RTVSPost2010PropOp52
 70
     0
102
RTVSPost2010Prop53
 90
        2
102
RTVSPost2010PropOp53
 70
     1
102
RTVSPost2010Prop54
  1
strokes_ogs.tif
102
RTVSPost2010PropOp54
 70
     1
102
RTVSPost2010Prop55
280
     0
102
RTVSPost2010PropOp55
 70
     1
102
RTVSPost2010Prop56
140
1.0
102
RTVSPost2010PropOp56
 70
     1
102
RTVSPost2010Prop57
140
1.0
102
RTVSPost2010PropOp57
 70
     1
  0
XRECORD
  5
1C6
102
{ACAD_REACTORS
330
1C5
102
}
330
1C5
100
AcDbXrecord
280
     1
102
RTVSPropertyOp0
 70
     1
102
RTVSPropertyOp1
 70
     1
102
RTVSPropertyOp2
 70
     1
102
RTVSPropertyOp3
 70
     1
102
RTVSPropertyOp4
 70
     1
102
RTVSPropertyOp5
 70
     1
102
RTVSPropertyOp6
 70
     1
102
RTVSPropertyOp7
 70
     1
102
RTVSPropertyOp8
 70
     1
102
RTVSPropertyOp9
 70
     1
102
RTVSPropertyOp10
 70
     1
102
RTVSPropertyOp11
 70
     1
102
RTVSPropertyOp12
 70
     1
102
RTVSPropertyOp13
 70
     1
102
RTVSPropertyOp14
 70
     1
102
RTVSPropertyOp15
 70
     1
102
RTVSPropertyOp16
 70
     1
102
RTVSPropertyOp17
 70
     1
102
RTVSPropertyOp18
 70
     1
102
RTVSPropertyOp19
 70
     1
102
RTVSPropertyOp20
 70
     1
102
RTVSPropertyOp21
 70
     1
102
RTVSPropertyOp22
 70
     1
102
RTVSPropertyOp23
 70
     1
102
RTVSPropertyOp24
 70
     1
102
RTVSPropertyOp25
 70
     1
102
RTVSPropertyOp26
 70
     1
102
RTVSPropertyOp27
 70
     1
102
RTVSPropertyOp28
 70
     1
102
RTVSPropertyOp29
 70
     1
102
RTVSPropertyOp30
 70
     1
102
RTVSPropertyOp31
 70
     1
102
RTVSPropertyOp32
 70
     1
102
RTVSPropertyOp33
 70
     1
102
RTVSPropertyOp34
 70
     1
102
RTVSPropertyOp35
 70
     1
102
RTVSPropertyOp36
 70
     1
102
RTVSPropertyOp37
 70
     1
102
RTVSPropertyOp38
 70
     1
102
RTVSPropertyOp39
 70
     1
102
RTVSPropertyOp40
 70
     1
102
RTVSPropertyOp41
 70
     1
102
RTVSPropertyOp42
 70
     1
102
RTVSPropertyOp43
 70
     1
102
RTVSPropertyOp44
 70
     1
102
RTVSPropertyOp45
 70
     1
102
RTVSPropertyOp46
 70
     1
102
RTVSPropertyOp47
 70
     1
102
RTVSPropertyOp48
 70
     1
102
RTVSPropertyOp49
 70
     1
102
RTVSPropertyOp50
 70
     1
102
RTVSPropertyOp51
 70
     0
102
RTVSPropertyOp52
 70
     0
102
RTVSPropertyOp53
 70
     1
102
RTVSPropertyOp54
 70
     1
102
RTVSPropertyOp55
 70
     1
102
RTVSPropertyOp56
 70
     1
102
RTVSPropertyOp57
 70
     1
102
RTVSPost2010Prop28
280
     0
102
RTVSPost2010PropOp28
 70
     1
102
RTVSPost2010Prop29
280
     1
102
RTVSPost2010PropOp29
 70
     1
102
RTVSPost2010Prop30
280
     1
102
RTVSPost2010PropOp30
 70
     1
102
RTVSPost2010Prop31
280
     0
102
RTVSPost2010PropOp31
 70
     1
102
RTVSPost2010Prop32
280
     0
102
RTVSPost2010PropOp32
 70
     1
102
RTVSPost2010Prop33
280
     0
102
RTVSPost2010PropOp33
 70
     1
102
RTVSPost2010Prop34
280
     0
102
RTVSPost2010PropOp34
 70
     1
102
RTVSPost2010Prop35
280
     0
102
RTVSPost2010PropOp35
 70
     1
102
RTVSPost2010Prop36
280
     0
102
RTVSPost2010PropOp36
 70
     1
102
RTVSPost2010Prop37
 90
       50
102
RTVSPost2010PropOp37
 70
     1
102
RTVSPost2010Prop38
140
0.0
102
RTVSPost2010PropOp38
 70
     1
102
RTVSPost2010Prop39
140
1.0
102
RTVSPost2010PropOp39
 70
     1
102
RTVSPost2010Prop40
 90
        0
102
RTVSPost2010PropOp40
 70
     1
102
RTVSPost2010Prop41ColorIndex
 90
       18
102
RTVSPost2010Prop41ColorRGB
 90
        0
102
RTVSPost2010PropOp41
 70
     1
102
RTVSPost2010Prop42
 90
       50
102
RTVSPost2010PropOp42
 70
     1
102
RTVSPost2010Prop43
 90
        3
102
RTVSPost2010PropOp43
 70
     1
102
RTVSPost2010Prop44ColorIndex
 90
        5
102
RTVSPost2010Prop44ColorRGB
 90
      255
102
RTVSPost2010PropOp44
 70
     1
102
RTVSPost2010Prop45
280
     0
102
RTVSPost2010PropOp45
 70
     1
102
RTVSPost2010Prop46
 90
       50
102
RTVSPost2010PropOp46
 70
     1
102
RTVSPost2010Prop47
 90
       50
102
RTVSPost2010PropOp47
 70
     1
102
RTVSPost2010Prop48
 90
       50
102
RTVSPost2010PropOp48
 70
     1
102
RTVSPost2010Prop49
280
     0
102
RTVSPost2010PropOp49
 70
     1
102
RTVSPost2010Prop50
 90
       50
102
RTVSPost2010PropOp50
 70
     1
102
RTVSPost2010Prop51ColorIndex
 90
      256
102
RTVSPost2010Prop51ColorRGB
 90
-16777216
102
RTVSPost2010PropOp51
 70
     0
102
RTVSPost2010Prop52
140
1.0
102
RTVSPost2010PropOp52
 70
     0
102
RTVSPost2010Prop53
 90
        2
102
RTVSPost2010PropOp53
 70
     1
102
RTVSPost2010Prop54
  1
strokes_ogs.tif
102
RTVSPost2010PropOp54
 70
     1
102
RTVSPost2010Prop55
280
     0
102
RTVSPost2010PropOp55
 70
     1
102
RTVSPost2010Prop56
140
1.0
102
RTVSPost2010PropOp56
 70
     1
102
RTVSPost2010Prop57
140
1.0
102
RTVSPost2010PropOp57
 70
     1
  0
XRECORD
  5
1CC
102
{ACAD_REACTORS
330
1CB
102
}
330
1CB
100
AcDbXrecord
280
     1
102
RTVSPropertyOp0
 70
     1
102
RTVSPropertyOp1
 70
     1
102
RTVSPropertyOp2
 70
     1
102
RTVSPropertyOp3
 70
     1
102
RTVSPropertyOp4
 70
     1
102
RTVSPropertyOp5
 70
     1
102
RTVSPropertyOp6
 70
     1
102
RTVSPropertyOp7
 70
     1
102
RTVSPropertyOp8
 70
     1
102
RTVSPropertyOp9
 70
     1
102
RTVSPropertyOp10
 70
     1
102
RTVSPropertyOp11
 70
     1
102
RTVSPropertyOp12
 70
     1
102
RTVSPropertyOp13
 70
     1
102
RTVSPropertyOp14
 70
     1
102
RTVSPropertyOp15
 70
     1
102
RTVSPropertyOp16
 70
     1
102
RTVSPropertyOp17
 70
     1
102
RTVSPropertyOp18
 70
     1
102
RTVSPropertyOp19
 70
     1
102
RTVSPropertyOp20
 70
     1
102
RTVSPropertyOp21
 70
     1
102
RTVSPropertyOp22
 70
     1
102
RTVSPropertyOp23
 70
     1
102
RTVSPropertyOp24
 70
     1
102
RTVSPropertyOp25
 70
     1
102
RTVSPropertyOp26
 70
     1
102
RTVSPropertyOp27
 70
     1
102
RTVSPropertyOp28
 70
     1
102
RTVSPropertyOp29
 70
     1
102
RTVSPropertyOp30
 70
     1
102
RTVSPropertyOp31
 70
     1
102
RTVSPropertyOp32
 70
     1
102
RTVSPropertyOp33
 70
     1
102
RTVSPropertyOp34
 70
     1
102
RTVSPropertyOp35
 70
     1
102
RTVSPropertyOp36
 70
     1
102
RTVSPropertyOp37
 70
     1
102
RTVSPropertyOp38
 70
     1
102
RTVSPropertyOp39
 70
     1
102
RTVSPropertyOp40
 70
     1
102
RTVSPropertyOp41
 70
     1
102
RTVSPropertyOp42
 70
     1
102
RTVSPropertyOp43
 70
     1
102
RTVSPropertyOp44
 70
     1
102
RTVSPropertyOp45
 70
     1
102
RTVSPropertyOp46
 70
     1
102
RTVSPropertyOp47
 70
     1
102
RTVSPropertyOp48
 70
     1
102
RTVSPropertyOp49
 70
     1
102
RTVSPropertyOp50
 70
     1
102
RTVSPropertyOp51
 70
     0
102
RTVSPropertyOp52
 70
     0
102
RTVSPropertyOp53
 70
     1
102
RTVSPropertyOp54
 70
     1
102
RTVSPropertyOp55
 70
     1
102
RTVSPropertyOp56
 70
     1
102
RTVSPropertyOp57
 70
     1
102
RTVSPost2010Prop28
280
     0
102
RTVSPost2010PropOp28
 70
     1
102
RTVSPost2010Prop29
280
     1
102
RTVSPost2010PropOp29
 70
     1
102
RTVSPost2010Prop30
280
     1
102
RTVSPost2010PropOp30
 70
     1
102
RTVSPost2010Prop31
280
     0
102
RTVSPost2010PropOp31
 70
     1
102
RTVSPost2010Prop32
280
     0
102
RTVSPost2010PropOp32
 70
     1
102
RTVSPost2010Prop33
280
     0
102
RTVSPost2010PropOp33
 70
     1
102
RTVSPost2010Prop34
280
     0
102
RTVSPost2010PropOp34
 70
     1
102
RTVSPost2010Prop35
280
     0
102
RTVSPost2010PropOp35
 70
     1
102
RTVSPost2010Prop36
280
     0
102
RTVSPost2010PropOp36
 70
     1
102
RTVSPost2010Prop37
 90
       50
102
RTVSPost2010PropOp37
 70
     1
102
RTVSPost2010Prop38
140
0.0
102
RTVSPost2010PropOp38
 70
     1
102
RTVSPost2010Prop39
140
1.0
102
RTVSPost2010PropOp39
 70
     1
102
RTVSPost2010Prop40
 90
        0
102
RTVSPost2010PropOp40
 70
     1
102
RTVSPost2010Prop41ColorIndex
 90
       18
102
RTVSPost2010Prop41ColorRGB
 90
        0
102
RTVSPost2010PropOp41
 70
     1
102
RTVSPost2010Prop42
 90
       50
102
RTVSPost2010PropOp42
 70
     1
102
RTVSPost2010Prop43
 90
        3
102
RTVSPost2010PropOp43
 70
     1
102
RTVSPost2010Prop44ColorIndex
 90
        5
102
RTVSPost2010Prop44ColorRGB
 90
      255
102
RTVSPost2010PropOp44
 70
     1
102
RTVSPost2010Prop45
280
     0
102
RTVSPost2010PropOp45
 70
     1
102
RTVSPost2010Prop46
 90
       50
102
RTVSPost2010PropOp46
 70
     1
102
RTVSPost2010Prop47
 90
       50
102
RTVSPost2010PropOp47
 70
     1
102
RTVSPost2010Prop48
 90
       50
102
RTVSPost2010PropOp48
 70
     1
102
RTVSPost2010Prop49
280
     0
102
RTVSPost2010PropOp49
 70
     1
102
RTVSPost2010Prop50
 90
       50
102
RTVSPost2010PropOp50
 70
     1
102
RTVSPost2010Prop51ColorIndex
 90
      256
102
RTVSPost2010Prop51ColorRGB
 90
-16777216
102
RTVSPost2010PropOp51
 70
     0
102
RTVSPost2010Prop52
140
1.0
102
RTVSPost2010PropOp52
 70
     0
102
RTVSPost2010Prop53
 90
        2
102
RTVSPost2010PropOp53
 70
     1
102
RTVSPost2010Prop54
  1
strokes_ogs.tif
102
RTVSPost2010PropOp54
 70
     1
102
RTVSPost2010Prop55
280
     0
102
RTVSPost2010PropOp55
 70
     1
102
RTVSPost2010Prop56
140
1.0
102
RTVSPost2010PropOp56
 70
     1
102
RTVSPost2010Prop57
140
1.0
102
RTVSPost2010PropOp57
 70
     1
  0
XRECORD
  5
1E0
102
{ACAD_REACTORS
330
1DF
102
}
330
1DF
100
AcDbXrecord
280
     1
102
RTVSPropertyOp0
 70
     0
102
RTVSPropertyOp1
 70
     0
102
RTVSPropertyOp2
 70
     0
102
RTVSPropertyOp3
 70
     0
102
RTVSPropertyOp4
 70
     0
102
RTVSPropertyOp5
 70
     0
102
RTVSPropertyOp6
 70
     0
102
RTVSPropertyOp7
 70
     0
102
RTVSPropertyOp8
 70
     0
102
RTVSPropertyOp9
 70
     0
102
RTVSPropertyOp10
 70
     0
102
RTVSPropertyOp11
 70
     0
102
RTVSPropertyOp12
 70
     0
102
RTVSPropertyOp13
 70
     0
102
RTVSPropertyOp14
 70
     2
102
RTVSPropertyOp15
 70
     0
102
RTVSPropertyOp16
 70
     0
102
RTVSPropertyOp17
 70
     0
102
RTVSPropertyOp18
 70
     0
102
RTVSPropertyOp19
 70
     0
102
RTVSPropertyOp20
 70
     0
102
RTVSPropertyOp21
 70
     0
102
RTVSPropertyOp22
 70
     0
102
RTVSPropertyOp23
 70
     0
102
RTVSPropertyOp24
 70
     0
102
RTVSPropertyOp25
 70
     0
102
RTVSPropertyOp26
 70
     0
102
RTVSPropertyOp27
 70
     0
102
RTVSPropertyOp28
 70
     0
102
RTVSPropertyOp29
 70
     0
102
RTVSPropertyOp30
 70
     0
102
RTVSPropertyOp31
 70
     0
102
RTVSPropertyOp32
 70
     0
102
RTVSPropertyOp33
 70
     0
102
RTVSPropertyOp34
 70
     0
102
RTVSPropertyOp35
 70
     0
102
RTVSPropertyOp36
 70
     0
102
RTVSPropertyOp37
 70
     0
102
RTVSPropertyOp38
 70
     0
102
RTVSPropertyOp39
 70
     0
102
RTVSPropertyOp40
 70
     0
102
RTVSPropertyOp41
 70
     0
102
RTVSPropertyOp42
 70
     0
102
RTVSPropertyOp43
 70
     0
102
RTVSPropertyOp44
 70
     0
102
RTVSPropertyOp45
 70
     0
102
RTVSPropertyOp46
 70
     0
102
RTVSPropertyOp47
 70
     0
102
RTVSPropertyOp48
 70
     0
102
RTVSPropertyOp49
 70
     0
102
RTVSPropertyOp50
 70
     0
102
RTVSPropertyOp51
 70
     0
102
RTVSPropertyOp52
 70
     0
102
RTVSPropertyOp53
 70
     0
102
RTVSPropertyOp54
 70
     0
102
RTVSPropertyOp55
 70
     0
102
RTVSPropertyOp56
 70
     0
102
RTVSPropertyOp57
 70
     0
102
RTVSPost2010Prop28
280
     0
102
RTVSPost2010PropOp28
 70
     0
102
RTVSPost2010Prop29
280
     1
102
RTVSPost2010PropOp29
 70
     0
102
RTVSPost2010Prop30
280
     1
102
RTVSPost2010PropOp30
 70
     0
102
RTVSPost2010Prop31
280
     0
102
RTVSPost2010PropOp31
 70
     0
102
RTVSPost2010Prop32
280
     0
102
RTVSPost2010PropOp32
 70
     0
102
RTVSPost2010Prop33
280
     0
102
RTVSPost2010PropOp33
 70
     0
102
RTVSPost2010Prop34
280
     0
102
RTVSPost2010PropOp34
 70
     0
102
RTVSPost2010Prop35
280
     0
102
RTVSPost2010PropOp35
 70
     0
102
RTVSPost2010Prop36
280
     0
102
RTVSPost2010PropOp36
 70
     0
102
RTVSPost2010Prop37
 90
       50
102
RTVSPost2010PropOp37
 70
     0
102
RTVSPost2010Prop38
140
0.0
102
RTVSPost2010PropOp38
 70
     0
102
RTVSPost2010Prop39
140
1.0
102
RTVSPost2010PropOp39
 70
     0
102
RTVSPost2010Prop40
 90
        0
102
RTVSPost2010PropOp40
 70
     0
102
RTVSPost2010Prop41ColorIndex
 90
       18
102
RTVSPost2010Prop41ColorRGB
 90
        0
102
RTVSPost2010PropOp41
 70
     0
102
RTVSPost2010Prop42
 90
       50
102
RTVSPost2010PropOp42
 70
     0
102
RTVSPost2010Prop43
 90
        3
102
RTVSPost2010PropOp43
 70
     0
102
RTVSPost2010Prop44ColorIndex
 90
        5
102
RTVSPost2010Prop44ColorRGB
 90
      255
102
RTVSPost2010PropOp44
 70
     0
102
RTVSPost2010Prop45
280
     0
102
RTVSPost2010PropOp45
 70
     0
102
RTVSPost2010Prop46
 90
       50
102
RTVSPost2010PropOp46
 70
     0
102
RTVSPost2010Prop47
 90
       50
102
RTVSPost2010PropOp47
 70
     0
102
RTVSPost2010Prop48
 90
       50
102
RTVSPost2010PropOp48
 70
     0
102
RTVSPost2010Prop49
280
     0
102
RTVSPost2010PropOp49
 70
     0
102
RTVSPost2010Prop50
 90
       50
102
RTVSPost2010PropOp50
 70
     0
102
RTVSPost2010Prop51ColorIndex
 90
      256
102
RTVSPost2010Prop51ColorRGB
 90
-16777216
102
RTVSPost2010PropOp51
 70
     0
102
RTVSPost2010Prop52
140
1.0
102
RTVSPost2010PropOp52
 70
     0
102
RTVSPost2010Prop53
 90
        2
102
RTVSPost2010PropOp53
 70
     0
102
RTVSPost2010Prop54
  1
strokes_ogs.tif
102
RTVSPost2010PropOp54
 70
     0
102
RTVSPost2010Prop55
280
     0
102
RTVSPost2010PropOp55
 70
     0
102
RTVSPost2010Prop56
140
1.0
102
RTVSPost2010PropOp56
 70
     0
102
RTVSPost2010Prop57
140
1.0
102
RTVSPost2010PropOp57
 70
     0
  0
XRECORD
  5
1DA
102
{ACAD_REACTORS
330
1D9
102
}
330
1D9
100
AcDbXrecord
280
     1
102
RTVSPropertyOp0
 70
     1
102
RTVSPropertyOp1
 70
     1
102
RTVSPropertyOp2
 70
     1
102
RTVSPropertyOp3
 70
     1
102
RTVSPropertyOp4
 70
     1
102
RTVSPropertyOp5
 70
     1
102
RTVSPropertyOp6
 70
     1
102
RTVSPropertyOp7
 70
     1
102
RTVSPropertyOp8
 70
     1
102
RTVSPropertyOp9
 70
     1
102
RTVSPropertyOp10
 70
     1
102
RTVSPropertyOp11
 70
     1
102
RTVSPropertyOp12
 70
     1
102
RTVSPropertyOp13
 70
     1
102
RTVSPropertyOp14
 70
     1
102
RTVSPropertyOp15
 70
     1
102
RTVSPropertyOp16
 70
     1
102
RTVSPropertyOp17
 70
     1
102
RTVSPropertyOp18
 70
     1
102
RTVSPropertyOp19
 70
     1
102
RTVSPropertyOp20
 70
     1
102
RTVSPropertyOp21
 70
     1
102
RTVSPropertyOp22
 70
     1
102
RTVSPropertyOp23
 70
     1
102
RTVSPropertyOp24
 70
     1
102
RTVSPropertyOp25
 70
     1
102
RTVSPropertyOp26
 70
     1
102
RTVSPropertyOp27
 70
     1
102
RTVSPropertyOp28
 70
     1
102
RTVSPropertyOp29
 70
     1
102
RTVSPropertyOp30
 70
     1
102
RTVSPropertyOp31
 70
     1
102
RTVSPropertyOp32
 70
     1
102
RTVSPropertyOp33
 70
     1
102
RTVSPropertyOp34
 70
     1
102
RTVSPropertyOp35
 70
     1
102
RTVSPropertyOp36
 70
     1
102
RTVSPropertyOp37
 70
     1
102
RTVSPropertyOp38
 70
     1
102
RTVSPropertyOp39
 70
     1
102
RTVSPropertyOp40
 70
     1
102
RTVSPropertyOp41
 70
     1
102
RTVSPropertyOp42
 70
     1
102
RTVSPropertyOp43
 70
     1
102
RTVSPropertyOp44
 70
     1
102
RTVSPropertyOp45
 70
     1
102
RTVSPropertyOp46
 70
     1
102
RTVSPropertyOp47
 70
     1
102
RTVSPropertyOp48
 70
     1
102
RTVSPropertyOp49
 70
     1
102
RTVSPropertyOp50
 70
     1
102
RTVSPropertyOp51
 70
     0
102
RTVSPropertyOp52
 70
     0
102
RTVSPropertyOp53
 70
     1
102
RTVSPropertyOp54
 70
     1
102
RTVSPropertyOp55
 70
     1
102
RTVSPropertyOp56
 70
     1
102
RTVSPropertyOp57
 70
     1
102
RTVSPost2010Prop28
280
     0
102
RTVSPost2010PropOp28
 70
     1
102
RTVSPost2010Prop29
280
     1
102
RTVSPost2010PropOp29
 70
     1
102
RTVSPost2010Prop30
280
     1
102
RTVSPost2010PropOp30
 70
     1
102
RTVSPost2010Prop31
280
     0
102
RTVSPost2010PropOp31
 70
     1
102
RTVSPost2010Prop32
280
     0
102
RTVSPost2010PropOp32
 70
     1
102
RTVSPost2010Prop33
280
     0
102
RTVSPost2010PropOp33
 70
     1
102
RTVSPost2010Prop34
280
     0
102
RTVSPost2010PropOp34
 70
     1
102
RTVSPost2010Prop35
280
     0
102
RTVSPost2010PropOp35
 70
     1
102
RTVSPost2010Prop36
280
     0
102
RTVSPost2010PropOp36
 70
     1
102
RTVSPost2010Prop37
 90
       50
102
RTVSPost2010PropOp37
 70
     1
102
RTVSPost2010Prop38
140
0.0
102
RTVSPost2010PropOp38
 70
     1
102
RTVSPost2010Prop39
140
1.0
102
RTVSPost2010PropOp39
 70
     1
102
RTVSPost2010Prop40
 90
        0
102
RTVSPost2010PropOp40
 70
     1
102
RTVSPost2010Prop41ColorIndex
 90
       18
102
RTVSPost2010Prop41ColorRGB
 90
        0
102
RTVSPost2010PropOp41
 70
     1
102
RTVSPost2010Prop42
 90
       50
102
RTVSPost2010PropOp42
 70
     1
102
RTVSPost2010Prop43
 90
        3
102
RTVSPost2010PropOp43
 70
     1
102
RTVSPost2010Prop44ColorIndex
 90
        5
102
RTVSPost2010Prop44ColorRGB
 90
      255
102
RTVSPost2010PropOp44
 70
     1
102
RTVSPost2010Prop45
280
     0
102
RTVSPost2010PropOp45
 70
     1
102
RTVSPost2010Prop46
 90
       50
102
RTVSPost2010PropOp46
 70
     1
102
RTVSPost2010Prop47
 90
       50
102
RTVSPost2010PropOp47
 70
     1
102
RTVSPost2010Prop48
 90
       50
102
RTVSPost2010PropOp48
 70
     1
102
RTVSPost2010Prop49
280
     0
102
RTVSPost2010PropOp49
 70
     1
102
RTVSPost2010Prop50
 90
       50
102
RTVSPost2010PropOp50
 70
     1
102
RTVSPost2010Prop51ColorIndex
 90
      256
102
RTVSPost2010Prop51ColorRGB
 90
-16777216
102
RTVSPost2010PropOp51
 70
     0
102
RTVSPost2010Prop52
140
1.0
102
RTVSPost2010PropOp52
 70
     0
102
RTVSPost2010Prop53
 90
        2
102
RTVSPost2010PropOp53
 70
     1
102
RTVSPost2010Prop54
  1
strokes_ogs.tif
102
RTVSPost2010PropOp54
 70
     1
102
RTVSPost2010Prop55
280
     0
102
RTVSPost2010PropOp55
 70
     1
102
RTVSPost2010Prop56
140
1.0
102
RTVSPost2010PropOp56
 70
     1
102
RTVSPost2010Prop57
140
1.0
102
RTVSPost2010PropOp57
 70
     1
  0
XRECORD
  5
1E2
102
{ACAD_REACTORS
330
1E1
102
}
330
1E1
100
AcDbXrecord
280
     1
102
RTVSPropertyOp0
 70
     0
102
RTVSPropertyOp1
 70
     0
102
RTVSPropertyOp2
 70
     0
102
RTVSPropertyOp3
 70
     0
102
RTVSPropertyOp4
 70
     0
102
RTVSPropertyOp5
 70
     0
102
RTVSPropertyOp6
 70
     0
102
RTVSPropertyOp7
 70
     0
102
RTVSPropertyOp8
 70
     0
102
RTVSPropertyOp9
 70
     0
102
RTVSPropertyOp10
 70
     0
102
RTVSPropertyOp11
 70
     0
102
RTVSPropertyOp12
 70
     0
102
RTVSPropertyOp13
 70
     0
102
RTVSPropertyOp14
 70
     2
102
RTVSPropertyOp15
 70
     0
102
RTVSPropertyOp16
 70
     0
102
RTVSPropertyOp17
 70
     0
102
RTVSPropertyOp18
 70
     0
102
RTVSPropertyOp19
 70
     0
102
RTVSPropertyOp20
 70
     0
102
RTVSPropertyOp21
 70
     0
102
RTVSPropertyOp22
 70
     0
102
RTVSPropertyOp23
 70
     0
102
RTVSPropertyOp24
 70
     0
102
RTVSPropertyOp25
 70
     0
102
RTVSPropertyOp26
 70
     0
102
RTVSPropertyOp27
 70
     0
102
RTVSPropertyOp28
 70
     0
102
RTVSPropertyOp29
 70
     0
102
RTVSPropertyOp30
 70
     0
102
RTVSPropertyOp31
 70
     0
102
RTVSPropertyOp32
 70
     0
102
RTVSPropertyOp33
 70
     0
102
RTVSPropertyOp34
 70
     0
102
RTVSPropertyOp35
 70
     0
102
RTVSPropertyOp36
 70
     0
102
RTVSPropertyOp37
 70
     0
102
RTVSPropertyOp38
 70
     0
102
RTVSPropertyOp39
 70
     0
102
RTVSPropertyOp40
 70
     0
102
RTVSPropertyOp41
 70
     0
102
RTVSPropertyOp42
 70
     0
102
RTVSPropertyOp43
 70
     0
102
RTVSPropertyOp44
 70
     0
102
RTVSPropertyOp45
 70
     0
102
RTVSPropertyOp46
 70
     0
102
RTVSPropertyOp47
 70
     0
102
RTVSPropertyOp48
 70
     0
102
RTVSPropertyOp49
 70
     0
102
RTVSPropertyOp50
 70
     0
102
RTVSPropertyOp51
 70
     0
102
RTVSPropertyOp52
 70
     0
102
RTVSPropertyOp53
 70
     0
102
RTVSPropertyOp54
 70
     0
102
RTVSPropertyOp55
 70
     0
102
RTVSPropertyOp56
 70
     0
102
RTVSPropertyOp57
 70
     0
102
RTVSPost2010Prop28
280
     0
102
RTVSPost2010PropOp28
 70
     0
102
RTVSPost2010Prop29
280
     1
102
RTVSPost2010PropOp29
 70
     0
102
RTVSPost2010Prop30
280
     1
102
RTVSPost2010PropOp30
 70
     0
102
RTVSPost2010Prop31
280
     0
102
RTVSPost2010PropOp31
 70
     0
102
RTVSPost2010Prop32
280
     0
102
RTVSPost2010PropOp32
 70
     0
102
RTVSPost2010Prop33
280
     0
102
RTVSPost2010PropOp33
 70
     0
102
RTVSPost2010Prop34
280
     0
102
RTVSPost2010PropOp34
 70
     0
102
RTVSPost2010Prop35
280
     0
102
RTVSPost2010PropOp35
 70
     0
102
RTVSPost2010Prop36
280
     0
102
RTVSPost2010PropOp36
 70
     0
102
RTVSPost2010Prop37
 90
       50
102
RTVSPost2010PropOp37
 70
     0
102
RTVSPost2010Prop38
140
0.0
102
RTVSPost2010PropOp38
 70
     0
102
RTVSPost2010Prop39
140
1.0
102
RTVSPost2010PropOp39
 70
     0
102
RTVSPost2010Prop40
 90
        0
102
RTVSPost2010PropOp40
 70
     0
102
RTVSPost2010Prop41ColorIndex
 90
       18
102
RTVSPost2010Prop41ColorRGB
 90
        0
102
RTVSPost2010PropOp41
 70
     0
102
RTVSPost2010Prop42
 90
       50
102
RTVSPost2010PropOp42
 70
     0
102
RTVSPost2010Prop43
 90
        3
102
RTVSPost2010PropOp43
 70
     0
102
RTVSPost2010Prop44ColorIndex
 90
        5
102
RTVSPost2010Prop44ColorRGB
 90
      255
102
RTVSPost2010PropOp44
 70
     0
102
RTVSPost2010Prop45
280
     0
102
RTVSPost2010PropOp45
 70
     0
102
RTVSPost2010Prop46
 90
       50
102
RTVSPost2010PropOp46
 70
     0
102
RTVSPost2010Prop47
 90
       50
102
RTVSPost2010PropOp47
 70
     0
102
RTVSPost2010Prop48
 90
       50
102
RTVSPost2010PropOp48
 70
     0
102
RTVSPost2010Prop49
280
     0
102
RTVSPost2010PropOp49
 70
     0
102
RTVSPost2010Prop50
 90
       50
102
RTVSPost2010PropOp50
 70
     0
102
RTVSPost2010Prop51ColorIndex
 90
      256
102
RTVSPost2010Prop51ColorRGB
 90
-16777216
102
RTVSPost2010PropOp51
 70
     0
102
RTVSPost2010Prop52
140
1.0
102
RTVSPost2010PropOp52
 70
     0
102
RTVSPost2010Prop53
 90
        2
102
RTVSPost2010PropOp53
 70
     0
102
RTVSPost2010Prop54
  1
strokes_ogs.tif
102
RTVSPost2010PropOp54
 70
     0
102
RTVSPost2010Prop55
280
     0
102
RTVSPost2010PropOp55
 70
     0
102
RTVSPost2010Prop56
140
1.0
102
RTVSPost2010PropOp56
 70
     0
102
RTVSPost2010Prop57
140
1.0
102
RTVSPost2010PropOp57
 70
     0
  0
XRECORD
  5
1D0
102
{ACAD_REACTORS
330
1CF
102
}
330
1CF
100
AcDbXrecord
280
     1
102
RTVSPropertyOp0
 70
     1
102
RTVSPropertyOp1
 70
     1
102
RTVSPropertyOp2
 70
     1
102
RTVSPropertyOp3
 70
     1
102
RTVSPropertyOp4
 70
     1
102
RTVSPropertyOp5
 70
     1
102
RTVSPropertyOp6
 70
     1
102
RTVSPropertyOp7
 70
     1
102
RTVSPropertyOp8
 70
     1
102
RTVSPropertyOp9
 70
     1
102
RTVSPropertyOp10
 70
     1
102
RTVSPropertyOp11
 70
     1
102
RTVSPropertyOp12
 70
     1
102
RTVSPropertyOp13
 70
     1
102
RTVSPropertyOp14
 70
     1
102
RTVSPropertyOp15
 70
     1
102
RTVSPropertyOp16
 70
     1
102
RTVSPropertyOp17
 70
     1
102
RTVSPropertyOp18
 70
     1
102
RTVSPropertyOp19
 70
     1
102
RTVSPropertyOp20
 70
     1
102
RTVSPropertyOp21
 70
     1
102
RTVSPropertyOp22
 70
     1
102
RTVSPropertyOp23
 70
     1
102
RTVSPropertyOp24
 70
     1
102
RTVSPropertyOp25
 70
     1
102
RTVSPropertyOp26
 70
     1
102
RTVSPropertyOp27
 70
     1
102
RTVSPropertyOp28
 70
     1
102
RTVSPropertyOp29
 70
     1
102
RTVSPropertyOp30
 70
     1
102
RTVSPropertyOp31
 70
     1
102
RTVSPropertyOp32
 70
     1
102
RTVSPropertyOp33
 70
     1
102
RTVSPropertyOp34
 70
     1
102
RTVSPropertyOp35
 70
     1
102
RTVSPropertyOp36
 70
     1
102
RTVSPropertyOp37
 70
     1
102
RTVSPropertyOp38
 70
     1
102
RTVSPropertyOp39
 70
     1
102
RTVSPropertyOp40
 70
     1
102
RTVSPropertyOp41
 70
     1
102
RTVSPropertyOp42
 70
     1
102
RTVSPropertyOp43
 70
     1
102
RTVSPropertyOp44
 70
     1
102
RTVSPropertyOp45
 70
     1
102
RTVSPropertyOp46
 70
     1
102
RTVSPropertyOp47
 70
     1
102
RTVSPropertyOp48
 70
     1
102
RTVSPropertyOp49
 70
     1
102
RTVSPropertyOp50
 70
     1
102
RTVSPropertyOp51
 70
     0
102
RTVSPropertyOp52
 70
     0
102
RTVSPropertyOp53
 70
     1
102
RTVSPropertyOp54
 70
     1
102
RTVSPropertyOp55
 70
     1
102
RTVSPropertyOp56
 70
     1
102
RTVSPropertyOp57
 70
     1
102
RTVSPost2010Prop28
280
     0
102
RTVSPost2010PropOp28
 70
     1
102
RTVSPost2010Prop29
280
     1
102
RTVSPost2010PropOp29
 70
     1
102
RTVSPost2010Prop30
280
     1
102
RTVSPost2010PropOp30
 70
     1
102
RTVSPost2010Prop31
280
     0
102
RTVSPost2010PropOp31
 70
     1
102
RTVSPost2010Prop32
280
     0
102
RTVSPost2010PropOp32
 70
     1
102
RTVSPost2010Prop33
280
     0
102
RTVSPost2010PropOp33
 70
     1
102
RTVSPost2010Prop34
280
     0
102
RTVSPost2010PropOp34
 70
     1
102
RTVSPost2010Prop35
280
     0
102
RTVSPost2010PropOp35
 70
     1
102
RTVSPost2010Prop36
280
     0
102
RTVSPost2010PropOp36
 70
     1
102
RTVSPost2010Prop37
 90
       50
102
RTVSPost2010PropOp37
 70
     1
102
RTVSPost2010Prop38
140
0.0
102
RTVSPost2010PropOp38
 70
     1
102
RTVSPost2010Prop39
140
1.0
102
RTVSPost2010PropOp39
 70
     1
102
RTVSPost2010Prop40
 90
        0
102
RTVSPost2010PropOp40
 70
     1
102
RTVSPost2010Prop41ColorIndex
 90
       18
102
RTVSPost2010Prop41ColorRGB
 90
        0
102
RTVSPost2010PropOp41
 70
     1
102
RTVSPost2010Prop42
 90
       50
102
RTVSPost2010PropOp42
 70
     1
102
RTVSPost2010Prop43
 90
        3
102
RTVSPost2010PropOp43
 70
     1
102
RTVSPost2010Prop44ColorIndex
 90
        5
102
RTVSPost2010Prop44ColorRGB
 90
      255
102
RTVSPost2010PropOp44
 70
     1
102
RTVSPost2010Prop45
280
     0
102
RTVSPost2010PropOp45
 70
     1
102
RTVSPost2010Prop46
 90
       50
102
RTVSPost2010PropOp46
 70
     1
102
RTVSPost2010Prop47
 90
       50
102
RTVSPost2010PropOp47
 70
     1
102
RTVSPost2010Prop48
 90
       50
102
RTVSPost2010PropOp48
 70
     1
102
RTVSPost2010Prop49
280
     0
102
RTVSPost2010PropOp49
 70
     1
102
RTVSPost2010Prop50
 90
       50
102
RTVSPost2010PropOp50
 70
     1
102
RTVSPost2010Prop51ColorIndex
 90
      256
102
RTVSPost2010Prop51ColorRGB
 90
-16777216
102
RTVSPost2010PropOp51
 70
     0
102
RTVSPost2010Prop52
140
1.0
102
RTVSPost2010PropOp52
 70
     0
102
RTVSPost2010Prop53
 90
        2
102
RTVSPost2010PropOp53
 70
     1
102
RTVSPost2010Prop54
  1
strokes_ogs.tif
102
RTVSPost2010PropOp54
 70
     1
102
RTVSPost2010Prop55
280
     0
102
RTVSPost2010PropOp55
 70
     1
102
RTVSPost2010Prop56
140
1.0
102
RTVSPost2010PropOp56
 70
     1
102
RTVSPost2010Prop57
140
1.0
102
RTVSPost2010PropOp57
 70
     1
  0
XRECORD
  5
1EE
102
{ACAD_REACTORS
330
1ED
102
}
330
1ED
100
AcDbXrecord
280
     1
102
RTVSPropertyOp0
 70
     1
102
RTVSPropertyOp1
 70
     1
102
RTVSPropertyOp2
 70
     1
102
RTVSPropertyOp3
 70
     1
102
RTVSPropertyOp4
 70
     1
102
RTVSPropertyOp5
 70
     1
102
RTVSPropertyOp6
 70
     1
102
RTVSPropertyOp7
 70
     1
102
RTVSPropertyOp8
 70
     1
102
RTVSPropertyOp9
 70
     1
102
RTVSPropertyOp10
 70
     1
102
RTVSPropertyOp11
 70
     1
102
RTVSPropertyOp12
 70
     1
102
RTVSPropertyOp13
 70
     1
102
RTVSPropertyOp14
 70
     1
102
RTVSPropertyOp15
 70
     1
102
RTVSPropertyOp16
 70
     1
102
RTVSPropertyOp17
 70
     1
102
RTVSPropertyOp18
 70
     1
102
RTVSPropertyOp19
 70
     1
102
RTVSPropertyOp20
 70
     1
102
RTVSPropertyOp21
 70
     1
102
RTVSPropertyOp22
 70
     1
102
RTVSPropertyOp23
 70
     1
102
RTVSPropertyOp24
 70
     1
102
RTVSPropertyOp25
 70
     1
102
RTVSPropertyOp26
 70
     1
102
RTVSPropertyOp27
 70
     1
102
RTVSPropertyOp28
 70
     1
102
RTVSPropertyOp29
 70
     1
102
RTVSPropertyOp30
 70
     1
102
RTVSPropertyOp31
 70
     1
102
RTVSPropertyOp32
 70
     1
102
RTVSPropertyOp33
 70
     1
102
RTVSPropertyOp34
 70
     1
102
RTVSPropertyOp35
 70
     1
102
RTVSPropertyOp36
 70
     1
102
RTVSPropertyOp37
 70
     1
102
RTVSPropertyOp38
 70
     1
102
RTVSPropertyOp39
 70
     1
102
RTVSPropertyOp40
 70
     1
102
RTVSPropertyOp41
 70
     1
102
RTVSPropertyOp42
 70
     1
102
RTVSPropertyOp43
 70
     1
102
RTVSPropertyOp44
 70
     1
102
RTVSPropertyOp45
 70
     1
102
RTVSPropertyOp46
 70
     1
102
RTVSPropertyOp47
 70
     1
102
RTVSPropertyOp48
 70
     1
102
RTVSPropertyOp49
 70
     1
102
RTVSPropertyOp50
 70
     1
102
RTVSPropertyOp51
 70
     0
102
RTVSPropertyOp52
 70
     0
102
RTVSPropertyOp53
 70
     1
102
RTVSPropertyOp54
 70
     1
102
RTVSPropertyOp55
 70
     1
102
RTVSPropertyOp56
 70
     1
102
RTVSPropertyOp57
 70
     1
102
RTVSPost2010Prop28
280
     0
102
RTVSPost2010PropOp28
 70
     1
102
RTVSPost2010Prop29
280
     1
102
RTVSPost2010PropOp29
 70
     1
102
RTVSPost2010Prop30
280
     1
102
RTVSPost2010PropOp30
 70
     1
102
RTVSPost2010Prop31
280
     0
102
RTVSPost2010PropOp31
 70
     1
102
RTVSPost2010Prop32
280
     0
102
RTVSPost2010PropOp32
 70
     1
102
RTVSPost2010Prop33
280
     0
102
RTVSPost2010PropOp33
 70
     1
102
RTVSPost2010Prop34
280
     0
102
RTVSPost2010PropOp34
 70
     1
102
RTVSPost2010Prop35
280
     0
102
RTVSPost2010PropOp35
 70
     1
102
RTVSPost2010Prop36
280
     0
102
RTVSPost2010PropOp36
 70
     1
102
RTVSPost2010Prop37
 90
       50
102
RTVSPost2010PropOp37
 70
     1
102
RTVSPost2010Prop38
140
0.0
102
RTVSPost2010PropOp38
 70
     1
102
RTVSPost2010Prop39
140
1.0
102
RTVSPost2010PropOp39
 70
     1
102
RTVSPost2010Prop40
 90
        0
102
RTVSPost2010PropOp40
 70
     1
102
RTVSPost2010Prop41ColorIndex
 90
       18
102
RTVSPost2010Prop41ColorRGB
 90
        0
102
RTVSPost2010PropOp41
 70
     1
102
RTVSPost2010Prop42
 90
       50
102
RTVSPost2010PropOp42
 70
     1
102
RTVSPost2010Prop43
 90
        3
102
RTVSPost2010PropOp43
 70
     1
102
RTVSPost2010Prop44ColorIndex
 90
        5
102
RTVSPost2010Prop44ColorRGB
 90
      255
102
RTVSPost2010PropOp44
 70
     1
102
RTVSPost2010Prop45
280
     0
102
RTVSPost2010PropOp45
 70
     1
102
RTVSPost2010Prop46
 90
       50
102
RTVSPost2010PropOp46
 70
     1
102
RTVSPost2010Prop47
 90
       50
102
RTVSPost2010PropOp47
 70
     1
102
RTVSPost2010Prop48
 90
       50
102
RTVSPost2010PropOp48
 70
     1
102
RTVSPost2010Prop49
280
     0
102
RTVSPost2010PropOp49
 70
     1
102
RTVSPost2010Prop50
 90
       50
102
RTVSPost2010PropOp50
 70
     1
102
RTVSPost2010Prop51ColorIndex
 90
      256
102
RTVSPost2010Prop51ColorRGB
 90
-16777216
102
RTVSPost2010PropOp51
 70
     0
102
RTVSPost2010Prop52
140
1.0
102
RTVSPost2010PropOp52
 70
     0
102
RTVSPost2010Prop53
 90
        2
102
RTVSPost2010PropOp53
 70
     1
102
RTVSPost2010Prop54
  1
strokes_ogs.tif
102
RTVSPost2010PropOp54
 70
     1
102
RTVSPost2010Prop55
280
     0
102
RTVSPost2010PropOp55
 70
     1
102
RTVSPost2010Prop56
140
1.0
102
RTVSPost2010PropOp56
 70
     1
102
RTVSPost2010Prop57
140
1.0
102
RTVSPost2010PropOp57
 70
     1
  0
XRECORD
  5
1EC
102
{ACAD_REACTORS
330
1EB
102
}
330
1EB
100
AcDbXrecord
280
     1
102
RTVSPropertyOp0
 70
     1
102
RTVSPropertyOp1
 70
     1
102
RTVSPropertyOp2
 70
     1
102
RTVSPropertyOp3
 70
     1
102
RTVSPropertyOp4
 70
     1
102
RTVSPropertyOp5
 70
     1
102
RTVSPropertyOp6
 70
     1
102
RTVSPropertyOp7
 70
     1
102
RTVSPropertyOp8
 70
     1
102
RTVSPropertyOp9
 70
     1
102
RTVSPropertyOp10
 70
     1
102
RTVSPropertyOp11
 70
     1
102
RTVSPropertyOp12
 70
     1
102
RTVSPropertyOp13
 70
     1
102
RTVSPropertyOp14
 70
     1
102
RTVSPropertyOp15
 70
     1
102
RTVSPropertyOp16
 70
     1
102
RTVSPropertyOp17
 70
     1
102
RTVSPropertyOp18
 70
     1
102
RTVSPropertyOp19
 70
     1
102
RTVSPropertyOp20
 70
     1
102
RTVSPropertyOp21
 70
     1
102
RTVSPropertyOp22
 70
     1
102
RTVSPropertyOp23
 70
     1
102
RTVSPropertyOp24
 70
     1
102
RTVSPropertyOp25
 70
     1
102
RTVSPropertyOp26
 70
     1
102
RTVSPropertyOp27
 70
     1
102
RTVSPropertyOp28
 70
     1
102
RTVSPropertyOp29
 70
     1
102
RTVSPropertyOp30
 70
     1
102
RTVSPropertyOp31
 70
     1
102
RTVSPropertyOp32
 70
     1
102
RTVSPropertyOp33
 70
     1
102
RTVSPropertyOp34
 70
     1
102
RTVSPropertyOp35
 70
     1
102
RTVSPropertyOp36
 70
     1
102
RTVSPropertyOp37
 70
     1
102
RTVSPropertyOp38
 70
     1
102
RTVSPropertyOp39
 70
     1
102
RTVSPropertyOp40
 70
     1
102
RTVSPropertyOp41
 70
     1
102
RTVSPropertyOp42
 70
     1
102
RTVSPropertyOp43
 70
     1
102
RTVSPropertyOp44
 70
     1
102
RTVSPropertyOp45
 70
     1
102
RTVSPropertyOp46
 70
     1
102
RTVSPropertyOp47
 70
     1
102
RTVSPropertyOp48
 70
     1
102
RTVSPropertyOp49
 70
     1
102
RTVSPropertyOp50
 70
     1
102
RTVSPropertyOp51
 70
     0
102
RTVSPropertyOp52
 70
     0
102
RTVSPropertyOp53
 70
     1
102
RTVSPropertyOp54
 70
     1
102
RTVSPropertyOp55
 70
     1
102
RTVSPropertyOp56
 70
     1
102
RTVSPropertyOp57
 70
     1
102
RTVSPost2010Prop28
280
     0
102
RTVSPost2010PropOp28
 70
     1
102
RTVSPost2010Prop29
280
     1
102
RTVSPost2010PropOp29
 70
     1
102
RTVSPost2010Prop30
280
     1
102
RTVSPost2010PropOp30
 70
     1
102
RTVSPost2010Prop31
280
     0
102
RTVSPost2010PropOp31
 70
     1
102
RTVSPost2010Prop32
280
     0
102
RTVSPost2010PropOp32
 70
     1
102
RTVSPost2010Prop33
280
     0
102
RTVSPost2010PropOp33
 70
     1
102
RTVSPost2010Prop34
280
     0
102
RTVSPost2010PropOp34
 70
     1
102
RTVSPost2010Prop35
280
     0
102
RTVSPost2010PropOp35
 70
     1
102
RTVSPost2010Prop36
280
     0
102
RTVSPost2010PropOp36
 70
     1
102
RTVSPost2010Prop37
 90
       50
102
RTVSPost2010PropOp37
 70
     1
102
RTVSPost2010Prop38
140
0.0
102
RTVSPost2010PropOp38
 70
     1
102
RTVSPost2010Prop39
140
1.0
102
RTVSPost2010PropOp39
 70
     1
102
RTVSPost2010Prop40
 90
        0
102
RTVSPost2010PropOp40
 70
     1
102
RTVSPost2010Prop41ColorIndex
 90
       18
102
RTVSPost2010Prop41ColorRGB
 90
        0
102
RTVSPost2010PropOp41
 70
     1
102
RTVSPost2010Prop42
 90
       50
102
RTVSPost2010PropOp42
 70
     1
102
RTVSPost2010Prop43
 90
        3
102
RTVSPost2010PropOp43
 70
     1
102
RTVSPost2010Prop44ColorIndex
 90
        5
102
RTVSPost2010Prop44ColorRGB
 90
      255
102
RTVSPost2010PropOp44
 70
     1
102
RTVSPost2010Prop45
280
     0
102
RTVSPost2010PropOp45
 70
     1
102
RTVSPost2010Prop46
 90
       50
102
RTVSPost2010PropOp46
 70
     1
102
RTVSPost2010Prop47
 90
       50
102
RTVSPost2010PropOp47
 70
     1
102
RTVSPost2010Prop48
 90
       50
102
RTVSPost2010PropOp48
 70
     1
102
RTVSPost2010Prop49
280
     0
102
RTVSPost2010PropOp49
 70
     1
102
RTVSPost2010Prop50
 90
       50
102
RTVSPost2010PropOp50
 70
     1
102
RTVSPost2010Prop51ColorIndex
 90
      256
102
RTVSPost2010Prop51ColorRGB
 90
-16777216
102
RTVSPost2010PropOp51
 70
     0
102
RTVSPost2010Prop52
140
1.0
102
RTVSPost2010PropOp52
 70
     0
102
RTVSPost2010Prop53
 90
        2
102
RTVSPost2010PropOp53
 70
     1
102
RTVSPost2010Prop54
  1
strokes_ogs.tif
102
RTVSPost2010PropOp54
 70
     1
102
RTVSPost2010Prop55
280
     0
102
RTVSPost2010PropOp55
 70
     1
102
RTVSPost2010Prop56
140
1.0
102
RTVSPost2010PropOp56
 70
     1
102
RTVSPost2010Prop57
140
1.0
102
RTVSPost2010PropOp57
 70
     1
  0
XRECORD
  5
1E6
102
{ACAD_REACTORS
330
1E5
102
}
330
1E5
100
AcDbXrecord
280
     1
102
RTVSPropertyOp0
 70
     1
102
RTVSPropertyOp1
 70
     1
102
RTVSPropertyOp2
 70
     1
102
RTVSPropertyOp3
 70
     1
102
RTVSPropertyOp4
 70
     1
102
RTVSPropertyOp5
 70
     1
102
RTVSPropertyOp6
 70
     1
102
RTVSPropertyOp7
 70
     1
102
RTVSPropertyOp8
 70
     1
102
RTVSPropertyOp9
 70
     1
102
RTVSPropertyOp10
 70
     1
102
RTVSPropertyOp11
 70
     1
102
RTVSPropertyOp12
 70
     1
102
RTVSPropertyOp13
 70
     1
102
RTVSPropertyOp14
 70
     1
102
RTVSPropertyOp15
 70
     1
102
RTVSPropertyOp16
 70
     1
102
RTVSPropertyOp17
 70
     1
102
RTVSPropertyOp18
 70
     1
102
RTVSPropertyOp19
 70
     1
102
RTVSPropertyOp20
 70
     1
102
RTVSPropertyOp21
 70
     1
102
RTVSPropertyOp22
 70
     1
102
RTVSPropertyOp23
 70
     1
102
RTVSPropertyOp24
 70
     1
102
RTVSPropertyOp25
 70
     1
102
RTVSPropertyOp26
 70
     1
102
RTVSPropertyOp27
 70
     1
102
RTVSPropertyOp28
 70
     1
102
RTVSPropertyOp29
 70
     1
102
RTVSPropertyOp30
 70
     1
102
RTVSPropertyOp31
 70
     1
102
RTVSPropertyOp32
 70
     1
102
RTVSPropertyOp33
 70
     1
102
RTVSPropertyOp34
 70
     1
102
RTVSPropertyOp35
 70
     1
102
RTVSPropertyOp36
 70
     1
102
RTVSPropertyOp37
 70
     1
102
RTVSPropertyOp38
 70
     1
102
RTVSPropertyOp39
 70
     1
102
RTVSPropertyOp40
 70
     1
102
RTVSPropertyOp41
 70
     1
102
RTVSPropertyOp42
 70
     1
102
RTVSPropertyOp43
 70
     1
102
RTVSPropertyOp44
 70
     1
102
RTVSPropertyOp45
 70
     1
102
RTVSPropertyOp46
 70
     1
102
RTVSPropertyOp47
 70
     1
102
RTVSPropertyOp48
 70
     1
102
RTVSPropertyOp49
 70
     1
102
RTVSPropertyOp50
 70
     1
102
RTVSPropertyOp51
 70
     0
102
RTVSPropertyOp52
 70
     0
102
RTVSPropertyOp53
 70
     1
102
RTVSPropertyOp54
 70
     1
102
RTVSPropertyOp55
 70
     1
102
RTVSPropertyOp56
 70
     1
102
RTVSPropertyOp57
 70
     1
102
RTVSPost2010Prop28
280
     0
102
RTVSPost2010PropOp28
 70
     1
102
RTVSPost2010Prop29
280
     1
102
RTVSPost2010PropOp29
 70
     1
102
RTVSPost2010Prop30
280
     1
102
RTVSPost2010PropOp30
 70
     1
102
RTVSPost2010Prop31
280
     0
102
RTVSPost2010PropOp31
 70
     1
102
RTVSPost2010Prop32
280
     0
102
RTVSPost2010PropOp32
 70
     1
102
RTVSPost2010Prop33
280
     0
102
RTVSPost2010PropOp33
 70
     1
102
RTVSPost2010Prop34
280
     0
102
RTVSPost2010PropOp34
 70
     1
102
RTVSPost2010Prop35
280
     0
102
RTVSPost2010PropOp35
 70
     1
102
RTVSPost2010Prop36
280
     0
102
RTVSPost2010PropOp36
 70
     1
102
RTVSPost2010Prop37
 90
       50
102
RTVSPost2010PropOp37
 70
     1
102
RTVSPost2010Prop38
140
0.0
102
RTVSPost2010PropOp38
 70
     1
102
RTVSPost2010Prop39
140
1.0
102
RTVSPost2010PropOp39
 70
     1
102
RTVSPost2010Prop40
 90
        0
102
RTVSPost2010PropOp40
 70
     1
102
RTVSPost2010Prop41ColorIndex
 90
       18
102
RTVSPost2010Prop41ColorRGB
 90
        0
102
RTVSPost2010PropOp41
 70
     1
102
RTVSPost2010Prop42
 90
       50
102
RTVSPost2010PropOp42
 70
     1
102
RTVSPost2010Prop43
 90
        3
102
RTVSPost2010PropOp43
 70
     1
102
RTVSPost2010Prop44ColorIndex
 90
        5
102
RTVSPost2010Prop44ColorRGB
 90
      255
102
RTVSPost2010PropOp44
 70
     1
102
RTVSPost2010Prop45
280
     0
102
RTVSPost2010PropOp45
 70
     1
102
RTVSPost2010Prop46
 90
       50
102
RTVSPost2010PropOp46
 70
     1
102
RTVSPost2010Prop47
 90
       50
102
RTVSPost2010PropOp47
 70
     1
102
RTVSPost2010Prop48
 90
       50
102
RTVSPost2010PropOp48
 70
     1
102
RTVSPost2010Prop49
280
     0
102
RTVSPost2010PropOp49
 70
     1
102
RTVSPost2010Prop50
 90
       50
102
RTVSPost2010PropOp50
 70
     1
102
RTVSPost2010Prop51ColorIndex
 90
      256
102
RTVSPost2010Prop51ColorRGB
 90
-16777216
102
RTVSPost2010PropOp51
 70
     0
102
RTVSPost2010Prop52
140
1.0
102
RTVSPost2010PropOp52
 70
     0
102
RTVSPost2010Prop53
 90
        2
102
RTVSPost2010PropOp53
 70
     1
102
RTVSPost2010Prop54
  1
strokes_ogs.tif
102
RTVSPost2010PropOp54
 70
     1
102
RTVSPost2010Prop55
280
     0
102
RTVSPost2010PropOp55
 70
     1
102
RTVSPost2010Prop56
140
1.0
102
RTVSPost2010PropOp56
 70
     1
102
RTVSPost2010Prop57
140
1.0
102
RTVSPost2010PropOp57
 70
     1
  0
XRECORD
  5
1E8
102
{ACAD_REACTORS
330
1E7
102
}
330
1E7
100
AcDbXrecord
280
     1
102
RTVSPropertyOp0
 70
     1
102
RTVSPropertyOp1
 70
     1
102
RTVSPropertyOp2
 70
     1
102
RTVSPropertyOp3
 70
     1
102
RTVSPropertyOp4
 70
     1
102
RTVSPropertyOp5
 70
     1
102
RTVSPropertyOp6
 70
     1
102
RTVSPropertyOp7
 70
     1
102
RTVSPropertyOp8
 70
     1
102
RTVSPropertyOp9
 70
     1
102
RTVSPropertyOp10
 70
     1
102
RTVSPropertyOp11
 70
     1
102
RTVSPropertyOp12
 70
     1
102
RTVSPropertyOp13
 70
     1
102
RTVSPropertyOp14
 70
     1
102
RTVSPropertyOp15
 70
     1
102
RTVSPropertyOp16
 70
     1
102
RTVSPropertyOp17
 70
     1
102
RTVSPropertyOp18
 70
     1
102
RTVSPropertyOp19
 70
     1
102
RTVSPropertyOp20
 70
     1
102
RTVSPropertyOp21
 70
     1
102
RTVSPropertyOp22
 70
     1
102
RTVSPropertyOp23
 70
     1
102
RTVSPropertyOp24
 70
     1
102
RTVSPropertyOp25
 70
     1
102
RTVSPropertyOp26
 70
     1
102
RTVSPropertyOp27
 70
     1
102
RTVSPropertyOp28
 70
     1
102
RTVSPropertyOp29
 70
     1
102
RTVSPropertyOp30
 70
     1
102
RTVSPropertyOp31
 70
     1
102
RTVSPropertyOp32
 70
     1
102
RTVSPropertyOp33
 70
     1
102
RTVSPropertyOp34
 70
     1
102
RTVSPropertyOp35
 70
     1
102
RTVSPropertyOp36
 70
     1
102
RTVSPropertyOp37
 70
     1
102
RTVSPropertyOp38
 70
     1
102
RTVSPropertyOp39
 70
     1
102
RTVSPropertyOp40
 70
     1
102
RTVSPropertyOp41
 70
     1
102
RTVSPropertyOp42
 70
     1
102
RTVSPropertyOp43
 70
     1
102
RTVSPropertyOp44
 70
     1
102
RTVSPropertyOp45
 70
     1
102
RTVSPropertyOp46
 70
     1
102
RTVSPropertyOp47
 70
     1
102
RTVSPropertyOp48
 70
     1
102
RTVSPropertyOp49
 70
     1
102
RTVSPropertyOp50
 70
     1
102
RTVSPropertyOp51
 70
     0
102
RTVSPropertyOp52
 70
     0
102
RTVSPropertyOp53
 70
     1
102
RTVSPropertyOp54
 70
     1
102
RTVSPropertyOp55
 70
     1
102
RTVSPropertyOp56
 70
     1
102
RTVSPropertyOp57
 70
     1
102
RTVSPost2010Prop28
280
     0
102
RTVSPost2010PropOp28
 70
     1
102
RTVSPost2010Prop29
280
     1
102
RTVSPost2010PropOp29
 70
     1
102
RTVSPost2010Prop30
280
     1
102
RTVSPost2010PropOp30
 70
     1
102
RTVSPost2010Prop31
280
     0
102
RTVSPost2010PropOp31
 70
     1
102
RTVSPost2010Prop32
280
     0
102
RTVSPost2010PropOp32
 70
     1
102
RTVSPost2010Prop33
280
     0
102
RTVSPost2010PropOp33
 70
     1
102
RTVSPost2010Prop34
280
     0
102
RTVSPost2010PropOp34
 70
     1
102
RTVSPost2010Prop35
280
     0
102
RTVSPost2010PropOp35
 70
     1
102
RTVSPost2010Prop36
280
     0
102
RTVSPost2010PropOp36
 70
     1
102
RTVSPost2010Prop37
 90
       50
102
RTVSPost2010PropOp37
 70
     1
102
RTVSPost2010Prop38
140
0.0
102
RTVSPost2010PropOp38
 70
     1
102
RTVSPost2010Prop39
140
1.0
102
RTVSPost2010PropOp39
 70
     1
102
RTVSPost2010Prop40
 90
        0
102
RTVSPost2010PropOp40
 70
     1
102
RTVSPost2010Prop41ColorIndex
 90
       18
102
RTVSPost2010Prop41ColorRGB
 90
        0
102
RTVSPost2010PropOp41
 70
     1
102
RTVSPost2010Prop42
 90
       50
102
RTVSPost2010PropOp42
 70
     1
102
RTVSPost2010Prop43
 90
        3
102
RTVSPost2010PropOp43
 70
     1
102
RTVSPost2010Prop44ColorIndex
 90
        5
102
RTVSPost2010Prop44ColorRGB
 90
      255
102
RTVSPost2010PropOp44
 70
     1
102
RTVSPost2010Prop45
280
     0
102
RTVSPost2010PropOp45
 70
     1
102
RTVSPost2010Prop46
 90
       50
102
RTVSPost2010PropOp46
 70
     1
102
RTVSPost2010Prop47
 90
       50
102
RTVSPost2010PropOp47
 70
     1
102
RTVSPost2010Prop48
 90
       50
102
RTVSPost2010PropOp48
 70
     1
102
RTVSPost2010Prop49
280
     0
102
RTVSPost2010PropOp49
 70
     1
102
RTVSPost2010Prop50
 90
       50
102
RTVSPost2010PropOp50
 70
     1
102
RTVSPost2010Prop51ColorIndex
 90
      256
102
RTVSPost2010Prop51ColorRGB
 90
-16777216
102
RTVSPost2010PropOp51
 70
     0
102
RTVSPost2010Prop52
140
1.0
102
RTVSPost2010PropOp52
 70
     0
102
RTVSPost2010Prop53
 90
        2
102
RTVSPost2010PropOp53
 70
     1
102
RTVSPost2010Prop54
  1
strokes_ogs.tif
102
RTVSPost2010PropOp54
 70
     1
102
RTVSPost2010Prop55
280
     0
102
RTVSPost2010PropOp55
 70
     1
102
RTVSPost2010Prop56
140
1.0
102
RTVSPost2010PropOp56
 70
     1
102
RTVSPost2010Prop57
140
1.0
102
RTVSPost2010PropOp57
 70
     1
  0
XRECORD
  5
1D8
102
{ACAD_REACTORS
330
1D7
102
}
330
1D7
100
AcDbXrecord
280
     1
102
RTVSPropertyOp0
 70
     1
102
RTVSPropertyOp1
 70
     1
102
RTVSPropertyOp2
 70
     1
102
RTVSPropertyOp3
 70
     1
102
RTVSPropertyOp4
 70
     1
102
RTVSPropertyOp5
 70
     1
102
RTVSPropertyOp6
 70
     1
102
RTVSPropertyOp7
 70
     1
102
RTVSPropertyOp8
 70
     1
102
RTVSPropertyOp9
 70
     1
102
RTVSPropertyOp10
 70
     1
102
RTVSPropertyOp11
 70
     1
102
RTVSPropertyOp12
 70
     1
102
RTVSPropertyOp13
 70
     1
102
RTVSPropertyOp14
 70
     1
102
RTVSPropertyOp15
 70
     1
102
RTVSPropertyOp16
 70
     1
102
RTVSPropertyOp17
 70
     1
102
RTVSPropertyOp18
 70
     1
102
RTVSPropertyOp19
 70
     1
102
RTVSPropertyOp20
 70
     1
102
RTVSPropertyOp21
 70
     1
102
RTVSPropertyOp22
 70
     1
102
RTVSPropertyOp23
 70
     1
102
RTVSPropertyOp24
 70
     1
102
RTVSPropertyOp25
 70
     1
102
RTVSPropertyOp26
 70
     1
102
RTVSPropertyOp27
 70
     1
102
RTVSPropertyOp28
 70
     1
102
RTVSPropertyOp29
 70
     1
102
RTVSPropertyOp30
 70
     1
102
RTVSPropertyOp31
 70
     1
102
RTVSPropertyOp32
 70
     1
102
RTVSPropertyOp33
 70
     1
102
RTVSPropertyOp34
 70
     1
102
RTVSPropertyOp35
 70
     1
102
RTVSPropertyOp36
 70
     1
102
RTVSPropertyOp37
 70
     1
102
RTVSPropertyOp38
 70
     1
102
RTVSPropertyOp39
 70
     1
102
RTVSPropertyOp40
 70
     1
102
RTVSPropertyOp41
 70
     1
102
RTVSPropertyOp42
 70
     1
102
RTVSPropertyOp43
 70
     1
102
RTVSPropertyOp44
 70
     1
102
RTVSPropertyOp45
 70
     1
102
RTVSPropertyOp46
 70
     1
102
RTVSPropertyOp47
 70
     1
102
RTVSPropertyOp48
 70
     1
102
RTVSPropertyOp49
 70
     1
102
RTVSPropertyOp50
 70
     1
102
RTVSPropertyOp51
 70
     0
102
RTVSPropertyOp52
 70
     0
102
RTVSPropertyOp53
 70
     1
102
RTVSPropertyOp54
 70
     1
102
RTVSPropertyOp55
 70
     1
102
RTVSPropertyOp56
 70
     1
102
RTVSPropertyOp57
 70
     1
102
RTVSPost2010Prop28
280
     0
102
RTVSPost2010PropOp28
 70
     1
102
RTVSPost2010Prop29
280
     1
102
RTVSPost2010PropOp29
 70
     1
102
RTVSPost2010Prop30
280
     1
102
RTVSPost2010PropOp30
 70
     1
102
RTVSPost2010Prop31
280
     0
102
RTVSPost2010PropOp31
 70
     1
102
RTVSPost2010Prop32
280
     0
102
RTVSPost2010PropOp32
 70
     1
102
RTVSPost2010Prop33
280
     0
102
RTVSPost2010PropOp33
 70
     1
102
RTVSPost2010Prop34
280
     0
102
RTVSPost2010PropOp34
 70
     1
102
RTVSPost2010Prop35
280
     0
102
RTVSPost2010PropOp35
 70
     1
102
RTVSPost2010Prop36
280
     0
102
RTVSPost2010PropOp36
 70
     1
102
RTVSPost2010Prop37
 90
       50
102
RTVSPost2010PropOp37
 70
     1
102
RTVSPost2010Prop38
140
0.0
102
RTVSPost2010PropOp38
 70
     1
102
RTVSPost2010Prop39
140
1.0
102
RTVSPost2010PropOp39
 70
     1
102
RTVSPost2010Prop40
 90
        0
102
RTVSPost2010PropOp40
 70
     1
102
RTVSPost2010Prop41ColorIndex
 90
       18
102
RTVSPost2010Prop41ColorRGB
 90
        0
102
RTVSPost2010PropOp41
 70
     1
102
RTVSPost2010Prop42
 90
       50
102
RTVSPost2010PropOp42
 70
     1
102
RTVSPost2010Prop43
 90
        3
102
RTVSPost2010PropOp43
 70
     1
102
RTVSPost2010Prop44ColorIndex
 90
        5
102
RTVSPost2010Prop44ColorRGB
 90
      255
102
RTVSPost2010PropOp44
 70
     1
102
RTVSPost2010Prop45
280
     0
102
RTVSPost2010PropOp45
 70
     1
102
RTVSPost2010Prop46
 90
       50
102
RTVSPost2010PropOp46
 70
     1
102
RTVSPost2010Prop47
 90
       50
102
RTVSPost2010PropOp47
 70
     1
102
RTVSPost2010Prop48
 90
       50
102
RTVSPost2010PropOp48
 70
     1
102
RTVSPost2010Prop49
280
     0
102
RTVSPost2010PropOp49
 70
     1
102
RTVSPost2010Prop50
 90
       50
102
RTVSPost2010PropOp50
 70
     1
102
RTVSPost2010Prop51ColorIndex
 90
      256
102
RTVSPost2010Prop51ColorRGB
 90
-16777216
102
RTVSPost2010PropOp51
 70
     0
102
RTVSPost2010Prop52
140
1.0
102
RTVSPost2010PropOp52
 70
     0
102
RTVSPost2010Prop53
 90
        2
102
RTVSPost2010PropOp53
 70
     1
102
RTVSPost2010Prop54
  1
strokes_ogs.tif
102
RTVSPost2010PropOp54
 70
     1
102
RTVSPost2010Prop55
280
     0
102
RTVSPost2010PropOp55
 70
     1
102
RTVSPost2010Prop56
140
1.0
102
RTVSPost2010PropOp56
 70
     1
102
RTVSPost2010Prop57
140
1.0
102
RTVSPost2010PropOp57
 70
     1
  0
XRECORD
  5
1CA
102
{ACAD_REACTORS
330
1C9
102
}
330
1C9
100
AcDbXrecord
280
     1
102
RTVSPropertyOp0
 70
     1
102
RTVSPropertyOp1
 70
     1
102
RTVSPropertyOp2
 70
     1
102
RTVSPropertyOp3
 70
     1
102
RTVSPropertyOp4
 70
     1
102
RTVSPropertyOp5
 70
     1
102
RTVSPropertyOp6
 70
     1
102
RTVSPropertyOp7
 70
     1
102
RTVSPropertyOp8
 70
     1
102
RTVSPropertyOp9
 70
     1
102
RTVSPropertyOp10
 70
     1
102
RTVSPropertyOp11
 70
     1
102
RTVSPropertyOp12
 70
     1
102
RTVSPropertyOp13
 70
     1
102
RTVSPropertyOp14
 70
     1
102
RTVSPropertyOp15
 70
     1
102
RTVSPropertyOp16
 70
     1
102
RTVSPropertyOp17
 70
     1
102
RTVSPropertyOp18
 70
     1
102
RTVSPropertyOp19
 70
     1
102
RTVSPropertyOp20
 70
     1
102
RTVSPropertyOp21
 70
     1
102
RTVSPropertyOp22
 70
     1
102
RTVSPropertyOp23
 70
     1
102
RTVSPropertyOp24
 70
     1
102
RTVSPropertyOp25
 70
     1
102
RTVSPropertyOp26
 70
     1
102
RTVSPropertyOp27
 70
     1
102
RTVSPropertyOp28
 70
     1
102
RTVSPropertyOp29
 70
     1
102
RTVSPropertyOp30
 70
     1
102
RTVSPropertyOp31
 70
     1
102
RTVSPropertyOp32
 70
     1
102
RTVSPropertyOp33
 70
     1
102
RTVSPropertyOp34
 70
     1
102
RTVSPropertyOp35
 70
     1
102
RTVSPropertyOp36
 70
     1
102
RTVSPropertyOp37
 70
     1
102
RTVSPropertyOp38
 70
     1
102
RTVSPropertyOp39
 70
     1
102
RTVSPropertyOp40
 70
     1
102
RTVSPropertyOp41
 70
     1
102
RTVSPropertyOp42
 70
     1
102
RTVSPropertyOp43
 70
     1
102
RTVSPropertyOp44
 70
     1
102
RTVSPropertyOp45
 70
     1
102
RTVSPropertyOp46
 70
     1
102
RTVSPropertyOp47
 70
     1
102
RTVSPropertyOp48
 70
     1
102
RTVSPropertyOp49
 70
     1
102
RTVSPropertyOp50
 70
     1
102
RTVSPropertyOp51
 70
     0
102
RTVSPropertyOp52
 70
     0
102
RTVSPropertyOp53
 70
     1
102
RTVSPropertyOp54
 70
     1
102
RTVSPropertyOp55
 70
     1
102
RTVSPropertyOp56
 70
     1
102
RTVSPropertyOp57
 70
     1
102
RTVSPost2010Prop28
280
     0
102
RTVSPost2010PropOp28
 70
     1
102
RTVSPost2010Prop29
280
     1
102
RTVSPost2010PropOp29
 70
     1
102
RTVSPost2010Prop30
280
     1
102
RTVSPost2010PropOp30
 70
     1
102
RTVSPost2010Prop31
280
     0
102
RTVSPost2010PropOp31
 70
     1
102
RTVSPost2010Prop32
280
     0
102
RTVSPost2010PropOp32
 70
     1
102
RTVSPost2010Prop33
280
     0
102
RTVSPost2010PropOp33
 70
     1
102
RTVSPost2010Prop34
280
     0
102
RTVSPost2010PropOp34
 70
     1
102
RTVSPost2010Prop35
280
     0
102
RTVSPost2010PropOp35
 70
     1
102
RTVSPost2010Prop36
280
     0
102
RTVSPost2010PropOp36
 70
     1
102
RTVSPost2010Prop37
 90
       50
102
RTVSPost2010PropOp37
 70
     1
102
RTVSPost2010Prop38
140
0.0
102
RTVSPost2010PropOp38
 70
     1
102
RTVSPost2010Prop39
140
1.0
102
RTVSPost2010PropOp39
 70
     1
102
RTVSPost2010Prop40
 90
        0
102
RTVSPost2010PropOp40
 70
     1
102
RTVSPost2010Prop41ColorIndex
 90
       18
102
RTVSPost2010Prop41ColorRGB
 90
        0
102
RTVSPost2010PropOp41
 70
     1
102
RTVSPost2010Prop42
 90
       50
102
RTVSPost2010PropOp42
 70
     1
102
RTVSPost2010Prop43
 90
        3
102
RTVSPost2010PropOp43
 70
     1
102
RTVSPost2010Prop44ColorIndex
 90
        5
102
RTVSPost2010Prop44ColorRGB
 90
      255
102
RTVSPost2010PropOp44
 70
     1
102
RTVSPost2010Prop45
280
     0
102
RTVSPost2010PropOp45
 70
     1
102
RTVSPost2010Prop46
 90
       50
102
RTVSPost2010PropOp46
 70
     1
102
RTVSPost2010Prop47
 90
       50
102
RTVSPost2010PropOp47
 70
     1
102
RTVSPost2010Prop48
 90
       50
102
RTVSPost2010PropOp48
 70
     1
102
RTVSPost2010Prop49
280
     0
102
RTVSPost2010PropOp49
 70
     1
102
RTVSPost2010Prop50
 90
       50
102
RTVSPost2010PropOp50
 70
     1
102
RTVSPost2010Prop51ColorIndex
 90
      256
102
RTVSPost2010Prop51ColorRGB
 90
-16777216
102
RTVSPost2010PropOp51
 70
     0
102
RTVSPost2010Prop52
140
1.0
102
RTVSPost2010PropOp52
 70
     0
102
RTVSPost2010Prop53
 90
        2
102
RTVSPost2010PropOp53
 70
     1
102
RTVSPost2010Prop54
  1
strokes_ogs.tif
102
RTVSPost2010PropOp54
 70
     1
102
RTVSPost2010Prop55
280
     0
102
RTVSPost2010PropOp55
 70
     1
102
RTVSPost2010Prop56
140
1.0
102
RTVSPost2010PropOp56
 70
     1
102
RTVSPost2010Prop57
140
1.0
102
RTVSPost2010PropOp57
 70
     1
  0
XRECORD
  5
1EA
102
{ACAD_REACTORS
330
1E9
102
}
330
1E9
100
AcDbXrecord
280
     1
102
RTVSPropertyOp0
 70
     1
102
RTVSPropertyOp1
 70
     1
102
RTVSPropertyOp2
 70
     1
102
RTVSPropertyOp3
 70
     1
102
RTVSPropertyOp4
 70
     1
102
RTVSPropertyOp5
 70
     1
102
RTVSPropertyOp6
 70
     1
102
RTVSPropertyOp7
 70
     1
102
RTVSPropertyOp8
 70
     1
102
RTVSPropertyOp9
 70
     1
102
RTVSPropertyOp10
 70
     1
102
RTVSPropertyOp11
 70
     1
102
RTVSPropertyOp12
 70
     1
102
RTVSPropertyOp13
 70
     1
102
RTVSPropertyOp14
 70
     1
102
RTVSPropertyOp15
 70
     1
102
RTVSPropertyOp16
 70
     1
102
RTVSPropertyOp17
 70
     1
102
RTVSPropertyOp18
 70
     1
102
RTVSPropertyOp19
 70
     1
102
RTVSPropertyOp20
 70
     1
102
RTVSPropertyOp21
 70
     1
102
RTVSPropertyOp22
 70
     1
102
RTVSPropertyOp23
 70
     1
102
RTVSPropertyOp24
 70
     1
102
RTVSPropertyOp25
 70
     1
102
RTVSPropertyOp26
 70
     1
102
RTVSPropertyOp27
 70
     1
102
RTVSPropertyOp28
 70
     1
102
RTVSPropertyOp29
 70
     1
102
RTVSPropertyOp30
 70
     1
102
RTVSPropertyOp31
 70
     1
102
RTVSPropertyOp32
 70
     1
102
RTVSPropertyOp33
 70
     1
102
RTVSPropertyOp34
 70
     1
102
RTVSPropertyOp35
 70
     1
102
RTVSPropertyOp36
 70
     1
102
RTVSPropertyOp37
 70
     1
102
RTVSPropertyOp38
 70
     1
102
RTVSPropertyOp39
 70
     1
102
RTVSPropertyOp40
 70
     1
102
RTVSPropertyOp41
 70
     1
102
RTVSPropertyOp42
 70
     1
102
RTVSPropertyOp43
 70
     1
102
RTVSPropertyOp44
 70
     1
102
RTVSPropertyOp45
 70
     1
102
RTVSPropertyOp46
 70
     1
102
RTVSPropertyOp47
 70
     1
102
RTVSPropertyOp48
 70
     1
102
RTVSPropertyOp49
 70
     1
102
RTVSPropertyOp50
 70
     1
102
RTVSPropertyOp51
 70
     0
102
RTVSPropertyOp52
 70
     0
102
RTVSPropertyOp53
 70
     1
102
RTVSPropertyOp54
 70
     1
102
RTVSPropertyOp55
 70
     1
102
RTVSPropertyOp56
 70
     1
102
RTVSPropertyOp57
 70
     1
102
RTVSPost2010Prop28
280
     0
102
RTVSPost2010PropOp28
 70
     1
102
RTVSPost2010Prop29
280
     1
102
RTVSPost2010PropOp29
 70
     1
102
RTVSPost2010Prop30
280
     1
102
RTVSPost2010PropOp30
 70
     1
102
RTVSPost2010Prop31
280
     0
102
RTVSPost2010PropOp31
 70
     1
102
RTVSPost2010Prop32
280
     0
102
RTVSPost2010PropOp32
 70
     1
102
RTVSPost2010Prop33
280
     0
102
RTVSPost2010PropOp33
 70
     1
102
RTVSPost2010Prop34
280
     0
102
RTVSPost2010PropOp34
 70
     1
102
RTVSPost2010Prop35
280
     0
102
RTVSPost2010PropOp35
 70
     1
102
RTVSPost2010Prop36
280
     0
102
RTVSPost2010PropOp36
 70
     1
102
RTVSPost2010Prop37
 90
       50
102
RTVSPost2010PropOp37
 70
     1
102
RTVSPost2010Prop38
140
0.0
102
RTVSPost2010PropOp38
 70
     1
102
RTVSPost2010Prop39
140
1.0
102
RTVSPost2010PropOp39
 70
     1
102
RTVSPost2010Prop40
 90
        0
102
RTVSPost2010PropOp40
 70
     1
102
RTVSPost2010Prop41ColorIndex
 90
       18
102
RTVSPost2010Prop41ColorRGB
 90
        0
102
RTVSPost2010PropOp41
 70
     1
102
RTVSPost2010Prop42
 90
       50
102
RTVSPost2010PropOp42
 70
     1
102
RTVSPost2010Prop43
 90
        3
102
RTVSPost2010PropOp43
 70
     1
102
RTVSPost2010Prop44ColorIndex
 90
        5
102
RTVSPost2010Prop44ColorRGB
 90
      255
102
RTVSPost2010PropOp44
 70
     1
102
RTVSPost2010Prop45
280
     0
102
RTVSPost2010PropOp45
 70
     1
102
RTVSPost2010Prop46
 90
       50
102
RTVSPost2010PropOp46
 70
     1
102
RTVSPost2010Prop47
 90
       50
102
RTVSPost2010PropOp47
 70
     1
102
RTVSPost2010Prop48
 90
       50
102
RTVSPost2010PropOp48
 70
     1
102
RTVSPost2010Prop49
280
     0
102
RTVSPost2010PropOp49
 70
     1
102
RTVSPost2010Prop50
 90
       50
102
RTVSPost2010PropOp50
 70
     1
102
RTVSPost2010Prop51ColorIndex
 90
      256
102
RTVSPost2010Prop51ColorRGB
 90
-16777216
102
RTVSPost2010PropOp51
 70
     0
102
RTVSPost2010Prop52
140
1.0
102
RTVSPost2010PropOp52
 70
     0
102
RTVSPost2010Prop53
 90
        2
102
RTVSPost2010PropOp53
 70
     1
102
RTVSPost2010Prop54
  1
strokes_ogs.tif
102
RTVSPost2010PropOp54
 70
     1
102
RTVSPost2010Prop55
280
     0
102
RTVSPost2010PropOp55
 70
     1
102
RTVSPost2010Prop56
140
1.0
102
RTVSPost2010PropOp56
 70
     1
102
RTVSPost2010Prop57
140
1.0
102
RTVSPost2010PropOp57
 70
     1
  0
ENDSEC
  0
EOF
